Song name
# A B C D E F G H I J K L M N O P Q R S T U V W X Y Z

Kontrust - The Smash Song tab

intro 2x


E --10---------------------   --10------------------------|
B -------------------------   ----------------------------|
G -----12up-down--10-------   -----12up-down--10--12up----|
D -------------------12----   ----------------------------|
A -------------------------   ----------------------------|
E -------------------------   ----------------------------|

couplet 3x (last 2 four up and all 6 up)


E -------------------------  ----------------|
B -------------------------  ----------------|
G -------------------------  ----------------|
D -------------------------  ----------------|
A -3-4-3-4-344-3-----------  -6-6-6-6--------|
E -3-4-3-4-344-3-----------  -6-6-6-6--------|


Couplet 3x
intro   2x


refrein

E ----------------------------------------------------------------|
B ----------------------------------------------------------------|
G ----------------------------------------------------------------|
D --7---------3---------5------8------7------3------5-------------|
A --5--4X-----3--4x-----5--4x--8--4x--5--4x--3--4x--5--4x---------|
E --5---------1---------3------6------5------1------3-------------|


couplet 9x
intro   2x
refrein 2x ( again 2 times)


Solo 8x

E -----------------|
B -----------------|
G -----------------|
D -------7---5-----|
A --55-5---8-------|
E -----------------|


refrein 4x
couplet 4x

Made BY Quinten

Good luck with this tab !!

intro 2x


E --10---------------------   --10------------------------|
B -------------------------   ----------------------------|
G -----12up-down--10-------   -----12up-down--10--12up----|
D -------------------12----   ----------------------------|
A -------------------------   ----------------------------|
E -------------------------   ----------------------------|

couplet 3x (last 2 four up and all 6 up)


E -------------------------  ----------------|
B -------------------------  ----------------|
G -------------------------  ----------------|
D -------------------------  ----------------|
A -3-4-3-4-344-3-----------  -6-6-6-6--------|
E -3-4-3-4-344-3-----------  -6-6-6-6--------|


Couplet 3x
intro   2x


refrein

E ----------------------------------------------------------------|
B ----------------------------------------------------------------|
G ----------------------------------------------------------------|
D --7---------3---------5------8------7------3------5-------------|
A --5--4X-----3--4x-----5--4x--8--4x--5--4x--3--4x--5--4x---------|
E --5---------1---------3------6------5------1------3-------------|


couplet 9x
intro   2x
refrein 2x ( again 2 times)


Solo 8x

E -----------------|
B -----------------|
G -----------------|
D -------7---5-----|
A --55-5---8-------|
E -----------------|


refrein 4x
couplet 4x

Made BY Quinten

Good luck with this tab !!
Tap to rate this tab
 
# A B C D E F G H I J K L M N O P Q R S T U V W X Y Z