Song name
# A B C D E F G H I J K L M N O P Q R S T U V W X Y Z

Kontrust - The Smash Song tab

Dropped C
1=D   4=C
2=A   5=G
3=F   6=C

Bpm = 130

Intro\Pre-chorus
D|12--7-----------|12--7-----7-----|12--7-----------|12--7-----7-----|
A|-------8---5----|-------8--------|-------8---5----|-------8--------|
F|----------------|----------------|----------------|----------------|
C|----------------|----------------|----------------|----------------|
G|----------------|----------------|----------------|----------------|
C|----------------|----------------|----------------|----------------|

Intro p2
D|----------------|----------------|----------------|----------------|
A|----------------|----------------|----------------|----------------|
F|----------------|----------------|----------------|----------------|
C|----4-5-----7-5-|----4-5-----7-5-|----4-5-----7-5-|----7-5-----7-5-|
G|----------------|----------------|----------------|----------------|
C|0-0-----0-0-----|0-0-----0-0-----|0-0-----0-0-----|0-0-----0-0-----|

Verse PM
D|----------------|----------------|----------------|----------------|
A|----------------|----------------|----------------|----------------|
F|----------------|----------------|----------------|----------------|
C|----------------|----------------|----------------|----------------|
G|--0-1-0-1-01-10-|--0-1-0-1-01-10-|--0-1-0-1-01-10-|--3---3---3---3-|
C|--0-1-0-1-01-10-|--0-1-0-1-01-10-|--0-1-0-1-01-10-|--3---3---3---3-|x2
              *1-0             *1-0             *1-0
Pre-chorus

Chorus
D|----------------|----------------|----------------|----------------|
A|----------------|----------------|----------------|----------------|
F|----------------|----------------|----------------|----------------|
C|----------------|----------------|----------------|----------------|
G|2---2-xxxx2-2-xx|5---5-xxxx5-5-xx|7---7-xxxx7-7-xx|3---3-xxxx3-3-xx|
C|2---2-xxxx2-2-xx|5---5-xxxx5-5-xx|7---7-xxxx7-7-xx|3---3-xxxx3-3-xx|

D|----------------|----------------|----------------|----------------|
A|----------------|----------------|----------------|----------------|
F|----------------|----------------|----------------|----------------|
C|----------------|----------------|----------------|----------------|
G|2---2-xxxx2-2-xx|5---5-xxxx5-5-xx|7---7-xxxx7-7-xx|1010101010101010|tens
C|2---2-xxxx2-2-xx|5---5-xxxx5-5-xx|7---7-xxxx7-7-xx|1010101010101010|

Break
D|----------------|----------------|----------------|----------------|
A|----------------|----------------|----------------|----------------|
F|----------------|----------------|----------------|----------------|
C|----------------|----------------|----------------|----------------|
G|0-0-3-2-0-0-2-3-|0-0-3-2-0-0-2-3-|0-0-3-2-0-0-2-3-|0-0-3-2-0-0-2-0-|
C|0-0-3-2-0-0-2-3-|0-0-3-2-0-0-2-3-|0-0-3-2-0-0-2-3-|0-0-3-2-0-0-2-0-|
PM. .     . .     |. .     . .     |. .     . .     |. .     . .     |

PM
A|----------------|----------------|----------------|----------------|
F|----------------|----------------|----------------|----------------|
C|----------------|----------------|----------------|----------------|
G|--0-1-0-1-01-10-|--0-1-0-1-01-10-|--0-1-0-1-01-10-|--3-------3-----|
C|--0-1-0-1-01-10-|--0-1-0-1-01-10-|--0-1-0-1-01-10-|--3-------3-----|
              *1-0             *1-0             *1-0
Verse PM
A|----------------|----------------|----------------|----------------|
F|----------------|----------------|----------------|----------------|
C|----------------|----------------|----------------|----------------|
G|--0-1-0-1-01-10-|--0-1-0-1-01-10-|--0-1-0-1-01-10-|--3-------------|
C|--0-1-0-1-01-10-|--0-1-0-1-01-10-|--0-1-0-1-01-10-|--3-------------|
              *1-0             *1-0             *1-0

A|----------------|----------------|----------------|----------------|
F|----------------|----------------|----------------|----------------|
C|----------------|----------------|----------------|----------------|
G|--0-1-0-1-01-10-|--0-1-0-1-01-10-|--0-1-0-1-01-10-|--3---3---3---3-|
C|--0-1-0-1-01-10-|--0-1-0-1-01-10-|--0-1-0-1-01-10-|--3---3---3---3-|
              *1-0             *1-0             *1-0
Pre-chorus

Chorus

Bridge
D|----------------|----------------|----------------|----------------|
A|----------------|----------------|----------------|----------------|
F|----------------|----------------|----------------|----------------|
C|----------------|----------------|----------------|----------------|
G|2-2---2-2--2--2-|5-5---5-5--5--5-|7-7---7-7--7--7-|3-3---3-3--3--3-|
C|2-2---2-2--2--2-|5-5---5-5--5--5-|7-7---7-7--7--7-|3-3---3-3--3--3-|

D|----------------|----------------|----------------|----------------|
A|----------------|----------------|----------------|----------------|
F|----------------|----------------|----------------|----------------|
C|----------------|----------------|----------------|----------------|
G|2-2---2-2--2--2-|5-5---5-5--5--5-|7-7---7-7--7--7-|1010--1010-10-10|
C|2-2---2-2--2--2-|5-5---5-5--5--5-|7-7---7-7--7--7-|1010--1010-10-10|tens
                                                               hold ^
D|----------------|----------------|----------------|----------------|
A|----------------|----------------|----------------|----------------|
F|----------------|----------------|----------------|----------------|
C|--------9--5--7-|--------9--5--7-|--------9--5--7-|--------9--5--7-|
G|7-7---7---------|7-7---7---------|7-7---7---------|7-7---7---------|
C|----------------|----------------|----------------|----------------|

D|----------------|----------------|----------------|----------------|
A|----------------|----------------|----------------|----------------|
F|----------------|----------------|----------------|----------------|
C|--------9--5--7-|--------9--5--7-|--------9--5--7-|----------------|
G|7-7---7---------|7-7---7---------|7-7---7---------|7-7---7-12\-----|
C|----------------|----------------|----------------|--------12\-----|

D|----------------|----------------|----------------|----------------|
A|----------------|----------------|----------------|----------------|
F|----------------|----------------|----------------|----------------|
C|----------------|----------------|----------------|----------------|
G|2-2---2-9--5--7-|2-2---2-9--5--7-|2-2---2-9--5--7-|2-2---2-9--5--7-|
C|2-2---2-9--5--7-|2-2---2-9--5--7-|2-2---2-9--5--7-|2-2---2-9--5--7-|x2

D|----------------|
A|----------------|
F|----------------|
C|----------------|
G|--33-33---33-33-|
C|--33-33---33-33-|

Chorus

Chorus Alt
D|----------------|----------------|----------------|----------------|
A|----------------|----------------|----------------|----------------|
F|----------------|----------------|----------------|----------------|
C|----------------|----------------|----------------|----------------|
G|2-2-2-2-2-2-2-2-|5-5-5-5-5-5-5-5-|7-7-7-7-7-7-7-7-|3-3-3-3-3-3-3-3-|
C|2-2-2-2-2-2-2-2-|5-5-5-5-5-5-5-5-|7-7-7-7-7-7-7-7-|3-3-3-3-3-3-3-3-|

D|----------------|----------------|----------------|----------------|
A|----------------|----------------|----------------|----------------|
F|----------------|----------------|----------------|----------------|
C|----------------|----------------|----------------|----------------|
G|2-2-2-2-2-2-2-2-|5-5-5-5-5-5-5-5-|7-7-7-7-7-7-7-7-|1010101010101010|
C|2-2-2-2-2-2-2-2-|5-5-5-5-5-5-5-5-|7-7-7-7-7-7-7-7-|1010101010101010|tens

Outro PM
D|----------------|----------------|----------------|----------------|
A|----------------|----------------|----------------|----------------|
F|----------------|----------------|----------------|----------------|
C|----------------|----------------|----------------|----------------|
G|--0-1-0-1-01-10-|--0-1-0-1-01-10-|--0-1-0-1-01-10-|--0-1-0-1-01-10-|
C|--0-1-0-1-01-10-|--0-1-0-1-01-10-|--0-1-0-1-01-10-|--0-1-0-1-01-10-|

tabbed by Jasper
Tap to rate this tab
# A B C D E F G H I J K L M N O P Q R S T U V W X Y Z