Song name
# A B C D E F G H I J K L M N O P Q R S T U V W X Y Z

Kontrust - Zero tab

-kontrust- -zero-

 intro (clean)
 C|----------------|-----------------|
 G|--9--9----5--5--|--12-12----7--7--|
 C|---9--9----5--5-|---12-12----7--7-|
 F|7-------3-------|10-------5-------|
 A|----------------|-----------------|
 D|----------------|-----------------|x2

 verse (clean)
 C|----------------|-----------------|
 G|--9--9----5--5--|--12-12----7--7--|
 C|---9--9----5--5-|---12-12----7--7-|
 F|7-------3-------|10-------5-------|
 A|----------------|-----------------|
 D|----------------|-----------------|x4

 pre-chorus (clean)
 C|----------------|----------------|----------------|----------------|
 G|3-3-3-333-3-3-33|5-5-5-555-5-5-55|3-3-3-333-3-3-33|5-5-5-555-------|
 C|5-5-5-555-5-5-55|7-7-7-777-7-7-77|5-5-5-555-5-5-55|7-7-7-777-------|
 F|----------------|----------------|----------------|----------------|
 A|----------------|----------------|----------------|----------------|
 D|----------------|----------------|----------------|----------------|
PM|. .   ... .   ..|. .   ... .   ..|. .   ... .   ..|. .   ..        |

 chorus (dist)
 C|7---7--77-2-2-2-|2-2-3-3---2-2-22|7---7--77-10105-|5-5-5-5-8---7---|
 G|7---7--77-2-2-2-|2-2-3-3---2-2-22|7---7--77-10105-|5-5-5-5-8---7---|
 C|----------------|----------------|----------------|----------------|
 F|----------------|----------------|----------------|----------------|
 A|----------------|----------------|----------------|----------------|
 D|----------------|----------------|----------------|----------------|x2

 verse (clean)
 C|----------------|-----------------|
 G|--9--9----5--5--|--12-12----7--7--|
 C|---9--9----5--5-|---12-12----7--7-|
 F|7-------3-------|10-------5-------|
 A|----------------|-----------------|
 D|----------------|-----------------|x4

 pre-chorus (clean)
 C|----------------|----------------|----------------|----------------|
 G|3-3-3-333-3-3-33|5-5-5-555-5-5-55|3-3-3-333-3-3-33|5-5-5-555-------|
 C|5-5-5-555-5-5-55|7-7-7-777-7-7-77|5-5-5-555-5-5-55|7-7-7-777-------|
 F|----------------|----------------|----------------|----------------|
 A|----------------|----------------|----------------|----------------|
 D|----------------|----------------|----------------|----------------|
PM|. .   ... .   ..|. .   ... .   ..|. .   ... .   ..|. .   ..        |

 chorus (dist)
 C|7---7--77-2-2-2-|2-2-3-3---2-2-22|7---7--77-10105-|5-5-5-5-8---7---|
 G|7---7--77-2-2-2-|2-2-3-3---2-2-22|7---7--77-10105-|5-5-5-5-8---7---|
 C|----------------|----------------|----------------|----------------|
 F|----------------|----------------|----------------|----------------|
 A|----------------|----------------|----------------|----------------|
 D|----------------|----------------|----------------|----------------|x3
 (1st = EYO)

 bridge (dist)
 C|3-3-------------|3-3-------------|3-3-------------|3-3-------------|
 G|3-3-------------|3-3-------------|3-3-------------|3-3-------------|
 C|----------------|----------------|----------------|----------------|
 F|----------------|----------------|----------------|----------------|
 A|----------------|----------------|----------------|----------------|
 D|----------------|----------------|----------------|----------------|

 (EYO!)
 C|3-3-----3-3-----|5-5---2---2-2-22|3-3-----3-3-----|5---5---7-75-57-|
 G|3-3-----3-3-----|5-5---2---2-2-22|3-3-----3-3-----|5---5---7-75-57-|
 C|----------------|----------------|----------------|----------------|
 F|----------------|----------------|----------------|----------------|
 A|----------------|----------------|----------------|----------------|
 D|----------------|----------------|----------------|----------------|

 (dont you...)
 C|3-3-----3-3-----|5-5---2---2-2-22|3-3-----3-3-----|2---------------|
 G|3-3-----3-3-----|5-5---2---2-2-22|3-3-----3-3-----|2---------------|
 C|----------------|----------------|----------------|----------------|
 F|----------------|----------------|----------------|----------------|
 A|----------------|----------------|----------------|----------------|
 D|----------------|----------------|----------------|----------------|

 (staring down...)
 C|3-3-3-3-3-3-3-3-|2-2-2-2-5-5-5-5-|3-3-3-3-3-3-3-3-|2---------------|
 G|3-3-3-3-3-3-3-3-|2-2-2-2-5-5-5-5-|3-3-3-3-3-3-3-3-|2---------------|
 C|----------------|----------------|----------------|----------------|
 F|----------------|----------------|----------------|----------------|
 A|----------------|----------------|----------------|----------------|
 D|----------------|----------------|----------------|----------------|

 chorus end (dist)
 C|7---7--77-2-2-2-|2-2-3-3---2-2-22|7---7--77-10105-|5-5-5-5-8---7---|
 G|7---7--77-2-2-2-|2-2-3-3---2-2-22|7---7--77-10105-|5-5-5-5-8---7---|
 C|----------------|----------------|----------------|----------------|
 F|----------------|----------------|----------------|----------------|
 A|----------------|----------------|----------------|----------------|
 D|----------------|----------------|----------------|----------------|x3

 C|7---7--77-2-2-2-|2-2-3-3---2-2-22|7---7--77-10105-|5-5-5-5-8-8-8-8-|7---------------|
 G|7---7--77-2-2-2-|2-2-3-3---2-2-22|7---7--77-10105-|5-5-5-5-8-8-8-8-|7---------------|
 C|----------------|----------------|----------------|----------------|----------------|
 F|----------------|----------------|----------------|----------------|----------------|
 A|----------------|----------------|----------------|----------------|----------------|
 D|----------------|----------------|----------------|----------------|----------------|
Tap to rate this tab
 
# A B C D E F G H I J K L M N O P Q R S T U V W X Y Z