Guitaretab - guitar tabs
Song name
# A B C D E F G H I J K L M N O P Q R S T U V W X Y Z

Kooks - Always Where I Need To Be tab

The Kooks
Always where i need to be (solo)
Konk

OK, this is what I think is the solo of this song
The beginning is pretty accurate, but I'll be glad if someone thinks of a better tab for
fast ending or the whole solo itself and tells me


e ----------------------------------------------------------------|
B -12-11-9----------------9---------------------------------------|
G ---------11-9-8-9-8-7-8-11-11-11---13-11-----------------------|
D ---------------------------------11-------13-12-11-9-11b12r11p9-|
A ----------------------------------------------------------------|
E ----------------------------------------------------------------|
[ Tab from: http://www.guitaretab.com/k/kooks/178968.html ]
e ----------------------------------------------------------------|
B -11\13-14-14\-/16-16\--14-1616-14-16-14-------------------------|
G ----------------------------------------16-21-20-19-------------|
D ----------------------------------------------------21-20-18----|
A ----------------------------------------------------------------|
E ----------------------------------------------------------------|

e -----------------------------------------------------------------------|
B -----------------------------------------------------------------------|
G -21-20-19--------------------------------------------------------------|
D ----------21-20-18-21-20-18-19῀----------------------------------|
A -----------------------------------------------------------------------|
E -----------------------------------------------------------------------|


my mail: alpha52_vulture@hotmail.com

Thanks!!!!
Related for Always Where I Need To Be tab