Guitaretab - guitar tabs
Song name
# A B C D E F G H I J K L M N O P Q R S T U V W X Y Z

Kool And The Gang - More Funky Stuff tab

-------------------------------------------------------------------------------
	            More Funky Stuff - Kool & The Gang
-------------------------------------------------------------------------------
Tabbed by: ShanenahS (Shane Lysse)
Email: shanelysse@hotmail.com

Tuning: Standard

   Here is Kool & The Gang's "more funky stuff"; it is an awesome funk piece that is a 
to "funky Stuff". This is a great exercise for funk rhythms as well as a good riff! I 
you enjoy this song!

Intro Riff/Theme: 2x 0:00-0:27

e|-----7--------6--------7------x----7--------5------5--5--5--5--x-----------|
B|-----7--------6--------7------x----7--------5------5--5--5--5--x-----------|
G|-----7--------6--------7------x----7--------6h7----7--7--7--7--x-----------|
D|-----6--------5--------6------x----6---------------------------x-----------|
A|-----7--------6--------7------x----7---------------------------x-----------|
E|---------------------------------------------------------------------------|
       d        d        d      d    u        d      d  u  d  u  d


e|-----7--------6--------7------x----x----x----x----5--5--5--5--5------------|
B|-----7--------6--------7------x----x----x----x----8--7--7--7--5------------|
G|-----7--------6--------7------7----x----x----x----5--5--5--5--5------------|
D|-----6--------5--------6------x----5----x----x----5--5--5--5--5------------|
A|-----7--------6--------7------x----x----x----x-----------------------------|
E|---------------------------------------------------------------------------|
       d        d        d      d    u    d    u    d  u  d  u  d
[ Tab from: http://www.guitaretab.com/k/kool-and-the-gang/98803.html ]
  X36   0:28-1:53
e|---------------------------------------|
B|---8-8-8-8--8-8-8-8--8-8-8-8--8-8-8-8--|
G|---7-7-7-7--7-7-7-7--7-7-7-7--7-7-7-7--|
D|---------------------------------------|
A|---------------------------------------|
E|---------------------------------------|

Repetition of singing chorus part 1:53-2:14


 Outro/Theme: X8 2:15-2:58
e|-----7--------6--------7------x----7--------5------5--5--5--5--x-----------|
B|-----7--------6--------7------x----7--------5------5--5--5--5--x-----------|
G|-----7--------6--------7------x----7--------6h7----7--7--7--7--x-----------|
D|-----6--------5--------6------x----6---------------------------x-----------|
A|-----7--------6--------7------x----7---------------------------x-----------|
E|---------------------------------------------------------------------------|
       d        d        d      d    u        d      d  u  d  u  d


e|-----7--------6--------7------x----x----x----x----5--5--5--5--5------------|
B|-----7--------6--------7------x----x----x----x----8--7--7--7--5------------|
G|-----7--------6--------7------7----x----x----x----5--5--5--5--5------------|
D|-----6--------5--------6------x----5----x----x----5--5--5--5--5------------|
A|-----7--------6--------7------x----x----x----x-----------------------------|
E|---------------------------------------------------------------------------|
       d        d        d      d    u    d    u    d  u  d  u  d

| /  slide up
| \  slide down
| h  hammer-on
| p  pull-off
| ~  vibrato
| +  harmonic
| x  Mute note
===============================================================================
Related for More Funky Stuff tab