Guitaretab - guitar tabs
Song name
# A B C D E F G H I J K L M N O P Q R S T U V W X Y Z

Koopa - The Crash tab

-------------------------------------------------------------------------------------------------
			     The Crash - Koopa
-------------------------------------------------------------------------------------------------
Tabbed by: Stevie_B
Email: stevie_b_@msn.com

Tuning: half step down (Eb,Ab,Db,Gb,Bb,Eb)

Koopa's top 20 single. Awesome song and very easy to play. Have fun :D

Intro
eb|----------------------------------------------------------------------|
Bb|----------------------------------------------------------------------|
Gb|-11-11--14-14--9-9--11-11--11/13\11--9-9--11-11--9-9--11-11--11/13\11-|
Db|----------------------------------------------------------------------|
Ab|-9--9---12-12--7-7--9--9----9/11\9---7-7---9--9--7-7---9--9---9/11\9--|
Eb|----------------------------------------------------------------------|

eb|---------------------------------------------------------------------------------------------|
Bb|---------------------------------------------------------------------------------------------|
Gb|-9-9--11-11--14-14--9-9--11/13\11------------------------------------------------------------|
Db|---------------------------------------------------------------------------------------------|
Ab|-7-7---9--9--12-12--7-7---9/11\9-------------------------------------------------------------|
Eb|----------------------------------0-0-10-0-10-12-10-0-0-0-10-0-10-12-10--0-0-10-0-10-12-10-0-|

The intro ends on something like this and let it ring out
eb|-0-|
Bb|-0-|
Gb|-0-|
Db|-0-|
Ab|-0-|
Eb|-0-|


Verse
eb|-----------------------------|
Bb|-----------------------------|
Gb|-9-9-------------------------|
Db|-9-9--5-5--7-7--8-8--8-7-5-7-| x3
Ab|-7-7--5-5--7-7--8-8--8-7-5-7-|
Eb|------3-3--5-5--6-6--6-5-3-5-|

eb|--------------------------------|
Bb|--------------------------------|
Gb|--------------------------------|
Db|-9-9-9-9-9-9-9-8--8-8-8-8-7-5-2-|
Ab|-9-9-9-9-9-9-9-8--8-8-8-8-7-5-2-|
Eb|-7-7-7-7-7-7-7-6--6-6-6-6-5-3-0-|

eb|-----------------------------|
Bb|-----------------------------|
Gb|--9-9------------------------|
Db|--9-9--5-5--7-7--8-8-8-7-5-7-| x3
Ab|--7-7--5-5--7-7--8-8-8-7-5-7-|
Eb|-------3-3--5-5--6-6-6-5-3-5-|

eb|--------------------------------|
Bb|--------------------------------|
Gb|--------------------------------|
Db|-9-9-9-9-9-9-9-8--8-8-8-8-7-5-2-|
Ab|-9-9-9-9-9-9-9-8--8-8-8-8-7-5-2-|
Eb|-7-7-7-7-7-7-7-6--6-6-6-6-5-3-0-|


Chorus
eb|---------------------------------------------------------------|
Bb|---------------------------------------------------------------|
Gb|-9-9-9-9-9-9-9-7--7-7-7-7-7-7-7--------------------------------|
Db|-9-9-9-9-9-9-9-7--7-7-7-7-7-7-7-5-5-5-5-5-5-5-7--7-7-7-7-7-7-7-|
Ab|-7-7-7-7-7-7-7-5--5-5-5-5-5-5-5-5-5-5-5-5-5-5-7--7-7-7-7-7-7-7-|
Eb|--------------------------------3-3-3-3-3-3-3-5--5-5-5-5-5-5-5-|
[ Tab from: http://www.guitaretab.com/k/koopa/111189.html ]
eb|-------------------------------------------------------------|
Bb|-------------------------------------------------------------|
Gb|-9-9-9-9-9-9-9-7--7-7-7-7-7-7-7------------------------------|
Db|-9-9-9-9-9-9-9-7--7-7-7-7-7-7-7-5-5x--5x--5x--7x--7x--8--7-5-|
Ab|-7-7-7-7-7-7-7-5--5-5-5-5-5-5-5-5-5x--5x--5x--7x--7x--8--7-5-|
Eb|--------------------------------3-3x--3x--3x--5x--5x--6--5-3-|

eb|--------------------------------------------------------------|
Bb|--------------------------------------------------------------|
Gb|-x-x-9--9-9-9-7--7-7-7-7-7-7-7--------------------------------|
Db|-x-x-9--9-9-9-7--7-7-7-7-7-7-7-5-5-5-5-5-5-5-7--7-7-7-7-7-7-7-|
Ab|-x-x-7--7-7-7-5--5-5-5-5-5-5-5-5-5-5-5-5-5-5-7--7-7-7-7-7-7-7-|
Eb|-------------------------------3-3-3-3-3-3-3-5--5-5-5-5-5-5-5-|

eb|---------------------------------------------------------------|
Bb|---------------------------------------------------------------|
Gb|-----9--9-9-9-7--7-7-7-7-7-7-7---------------------------------|
Db|-----9--9-9-9-7--7-7-7-7-7-7-7-5-5-5-5-5-5-5-5-7-7-7-7-7-7-7-7-|
Ab|-----7--7-7-7-5--5-5-5-5-5-5-5-5-5-5-5-5-5-5-3-7-7-7-7-7-7-7-7-|
Eb|-------------------------------3-3-3-3-3-3-3-3-5-5-5-5-5-5-5-5-|

End of 1st chorus only.
eb|---------------------0-|
Bb|---------------------0-|
Gb|---------------------0-|
Db|---------------------0-|
Ab|---------------------0-|
Eb|-0-0-10-0-10-12-10-0-0-|


Breakdown
eb|----5+---------------------5+-|
Bb|-5+------------5+-------5+----|
Gb|------------5+----------------|
Db|------------------------------|
Ab|------------------------------|
Eb|------------------------------|

eb|----------------------------------------------------------------------|
Bb|----------------------------------------------------------------------|
Gb|-11-11--14-14--9-9--11-11--11/13\11--9-9--11-11--9-9--11-11--11/13\11-|
Db|----------------------------------------------------------------------|
Ab|-9--9---12-12--7-7--9--9----9/11\9---7-7---9--9--7-7---9--9---9/11\9--|
Eb|----------------------------------------------------------------------|

eb|-------------------------------------------------------------------------|
Bb|-------------------------------------------------------------------------|
Gb|-9-9--11-11--14-14--9-9--11/13\11----------------------------------------|
Db|-------------------------------------------------------------------------|
Ab|-7-7---9--9--12-12--7-7---9/11\9-----------------------------------------|
Eb|----------------------------------0-0-10-0-10-12-10-0-0-0-10-0-10-12-10--|


Ending
eb|----------------------------|
Bb|----------------------------|
Gb|-9-9------------------------|
Db|-9-9--5-5--7-7--8-8--8-7-5--| x4
Ab|-7-7--5-5--7-7--8-8--8-7-5--|
Eb|------3-3--5-5--6-6--6-5-3--|

eb|------------------------------|
Bb|------------------------------|
Gb|------------------------------|
Db|-5-5x--5x--5x--7x--7x--8--7-5-| x3
Ab|-5-5x--5x--5x--7x--7x--8--7-5-|
Eb|-3-3x--3x--3x--5x--5x--6--5-3-|

eb|------------------------|
Bb|------------------------|
Gb|-------2h4--2h5----xx9\-|
Db|-2-----------------xx9\-|
Ab|-2-----------------xx7\-|
Eb|-0----------------------|


Order:
Intro
Verse
Chorus
Verse
Chorus
Breakdown
Chorus
Ending


| /  slide up
| \  slide down
| h  hammer-on
| p  pull-off
| ~  vibrato
| +  harmonic
| x  Mute note
=================================================================================================
Related for The Crash tab
The Crash chords by Koopa