Song name
# A B C D E F G H I J K L M N O P Q R S T U V W X Y Z

Koopa - The One Off Song For The Summer tab

-----------------------------------------------------------------------------
		The One Off Song For The Summer - Koopa
-----------------------------------------------------------------------------

Tabbed by: Stevie B
Email: stevie_b_@msn,com

Tuning: Half-Step Down (Eb,Ab,Db,Gb,Bb,eb)

Another awesome Koopa song. Enjoy :D

Intro
eb|-----------------------------------------------------------|
Bb|-----------------------------------------------------------|
Gb|--4--4-4--4--4-4--4--4-4--4--4-4--4--4-4--4--4-4-4-4-4-4-4-|
Db|--x--x-x--x--x-x--x--x-x--x--x-x--x--x-x--x--x-x-x-x-x-x-x-|
Ab|--2--2-2--2--2-2--2--2-2--2--2-2--2--2-2--2--2-2-2-2-2-2-2-|
Eb|-----------------------------------------------------------|

Verse
eb|-------------------------------------------|
Bb|-------------------------------------------|
Gb|--4--4--4----4--4--4----4--4--4----4--4--4-|
Db|-------------------------------------------|
Ab|-2----------0-----2----2----------0-----2--|
Eb|----2--4-------0----------2--4-------0-----|

eb|-------------------------------------------------------------------|
Bb|-------------------------------------------------------------------|
Gb|-2-2-2-2-2-2-2-2-----------------4-4-4-4-4-4-4-4-7-7-7-9-9-9-11-11-|
Db|-2-2-2-2-2-2-2-2-2-2-2-2-2-2-2-2-4-4-4-4-4-4-4-4-7-7-7-9-9-9-11-11-|
Ab|-0-0-0-0-0-0-0-0-2-2-2-2-2-2-2-2-2-2-2-2-2-2-2-2-5-5-5-7-7-7-9--9--|
Eb|-----------------0-0-0-0-0-0-0-0-----------------------------------|
    ' ' ' ' ' ' ' ' ' ' ' ' ' ' ' ' ' ' ' ' ' ' ' ' ' ' ' ' ' ' '  '
eb|-----------------------------------------------------------------|
Bb|-----------------------------------------------------------------|
Gb|-2-2-2-2-2-2-2-2-------------------------------------------------|
Db|-2-2-2-2-2-2-2-2-2-2-2-2-2-2-2-2-4-4-4-4-4-4-4-4-4-4-4-4-4-4-4-4-|
Ab|-0-0-0-0-0-0-0-0-2-2-2-2-2-2-2-2-4-4-4-4-4-4-4-4-4-4-4-4-4-4-4-4-|
Eb|-----------------0-0-0-0-0-0-0-0-2-2-2-2-2-2-2-2-2-2-2-2-2-2-2-2-|
    ' ' ' ' ' ' ' ' ' ' ' ' ' ' ' ' ' ' ' ' ' ' ' ' ' ' ' ' ' ' ' '
Chorus
eb|-----------------------------------------------------------------|
Bb|-----------------------------------------------------------------|
Gb|-4-4-4-4-4-4-4-4-----------------2-2-2-2-2-2-2-2-----------------|
Db|-4-4-4-4-4-4-4-4-4-4-4-4-4-4-4-4-2-2-2-2-2-2-2-2-2-2-2-2-2-2-2-2-|
Ab|-2-2-2-2-2-2-2-2-4-4-4-4-4-4-4-4-0-0-0-0-0-0-0-0-2-2-2-2-2-2-2-2-|
Eb|-----------------2-2-2-2-2-2-2-2-----------------0-0-0-0-0-0-0-0-|

eb|-----------------------------------------------------------------|
Bb|-----------------7-7-7-7-7-7-7-7---------------------------------|
Gb|-4-4-4-4-4-4-4-4-6-6-6-6-6-6-6-6-2-2-2-2-2-2-2-2-2---------------|
Db|-4-4-4-4-4-4-4-4-4-4-4-4-4-4-4-4-2-2-2-2-2-2-2-2-2-2-2-2-2-2-2-2-|
Ab|-2-2-2-2-2-2-2-2-----------------0-0-0-0-0-0-0-0-2-2-2-2-2-2-2-2-|
Eb|-------------------------------------------------0-0-0-0-0-0-0-0-|

Solo
eb|-----------------------------------------------------|
Bb|-----------------------------------------------------|
Gb|-16---11---9--8-8-8-9-9-9-9-8-8-8-8-6-6-6-6-4--4-4-4-|
Db|-x----x----x--x-x-x-x-x-x-x-x-x-x-x-x-x-x-x-x--x-x-x-|
Ab|-14---9----7--6-6-6-7-7-7-7-6-6-6-6-4-4-4-4-2--2-2-2-|
Eb|-----------------------------------------------------|

eb|----------------------------------------------9-9-9-9-11-11-11-11-|
Bb|------------------------------------------------------------------|
Gb|-9--8--6--4-4--6--8-9--4--9-9-9-9-11-11-11-11---------------------|
Db|-x--x--x--x-x--x--x-x--x--x-x-x-x-x--x--x--x----------------------|
Ab|-7--6--4--2-2--4--6-7--2--7-7-7-7-9--9--9--9----------------------|
Eb|------------------------------------------------------------------|

eb|-7-0-0-0-9-0-0-0-11-0-0-0-12-0-0-0-12-0-11-0-9-0-7-0-9-0-7-0-5-0-7-0-|
Bb|---------------------------------------------------------------------|
Gb|---------------------------------------------------------------------|
Db|---------------------------------------------------------------------|
Ab|---------------------------------------------------------------------|
Eb|---------------------------------------------------------------------|

eb|--------------------11h12p11------------------------------|
Bb|-12b14r12--12-10h12----------12---------12b14r12--10--12~-|
Gb|----------------------------------------------------------|
Db|---------------------------------9b11r9-------------------|
Ab|----------------------------------------------------------|
Eb|----------------------------------------------------------|

Bridge
eb|---------------------------------------|
Bb|---------------------------------------|    
Gb|-4--4x--3x--3--3x---2--2X--1x--1--1-1x-|    
Db|-4--4x--4x--4--4x---2--2X--2x--2--2-2x-| x3 
Ab|---------------------------------------|    
Eb|---------------------------------------|    

eb|----------------------------------|
Bb|----------------------------------|
Gb|----1x--1x--1--1-1--4--4--4--4--4-|
Db|-2--2x--2x--2--2-2--4--4--4--4--4-|
Ab|-2--2x--2x--2--2-2----------------|
Eb|----------------------------------|

eb|---------------------------------|    |---------------------------------|
Bb|---------------------------------|    |---------------------------------|
Gb|-2-2-2-2---------4-4-4-4-4-4-4-4-|    |-2-2-2-2-------------------------|
Db|-2-2-2-2-2-2-2-2-4-4-4-4-4-4-4-4-| x3 |-2-2-2-2-2-2-2-2-4-4-4-4-4-4-4-4-|
Ab|-0-0-0-0-2-2-2-2-2-2-2-2-2-2-2-2-|    |-0-0-0-0-2-2-2-2-4-4-4-4-4-4-4-4-|
Eb|---------0-0-0-0-----------------|    |---------0-0-0-0-2-2-2-2-2-2-2-2-|
                                                           ' ' ' ' ' ' ' '

Order:
Intro
Verse
Chorus
Verse
Chorus
Solo
Bridge
Chorus x2


| '  Palm mute
| /  Slide up
| \  Slide down
| h  Hammer-on
| p  Pull-off
| ~  Vibrato
| +  Harmonic
| x  Mute note
=============================================================================
Tap to rate this tab
# A B C D E F G H I J K L M N O P Q R S T U V W X Y Z