Song name
# A B C D E F G H I J K L M N O P Q R S T U V W X Y Z

Koopa - Blagsteal And Borrow tab

E|--------------------------------|    X2
B|2-2-2-2-1-1-1-1-4-4-1-1-2-2-1-1-|
G|--------------------------------|
D|--------------------------------|
A|--------------------------------|
E|--------------------------------|

E|--------------------------------|
B|-------1-1-1-1-2-2-2-2-1-1-1-1--|
G|3-3-3-3-------------------------|
D|--------------------------------|
A|--------------------------------|
E|--------------------------------|


E|--------------------------------|
B|--------------------------------|
G|-------1-1-1-1-3-3-3-3-5-5-5-5--|
D|4-4-4-4-------------------------|
A|--------------------------------|
E|--------------------------------|


Repeat untill chords come in
couldnt find any tabs for this so i had a go, im sure this is right. it sounds good anyway
Tap to rate this tab
# A B C D E F G H I J K L M N O P Q R S T U V W X Y Z