Song name
# A B C D E F G H I J K L M N O P Q R S T U V W X Y Z

Koopa - No Trend tab

-----------------------------------------------------------------------------
			     No Trend - Koopa
-----------------------------------------------------------------------------
Tabbed by: Stevie B
Email: stevie_b_@msn.com

Tuning: half step down (Eb,Ab,Db,Gb,Bb,Eb)

Awesome song from Koopa, very easy and fun to play.
You can play this song in drop D if you dont want to use Eb but you can work that out 
yourselves :D

Intro
eb|-----------------------------------------------------------------|
Bb|-----------------------------------------------------------------|
Gb|-----------------------------------------------------------------|
Db|-4-4-4-4-4-4-4-4-6-6-6-6-6-6-6-6-----------------9-9-9-9-9-9-9-9-|
Ab|-2-2-2-2-2-2-2-2-4-4-4-4-4-4-4-4-6-6-6-6-6-6-6-6-7-7-7-7-7-7-7-7-|
Eb|---------------------------------4-4-4-4-4-4-4-4-----------------|
    * * * * * * * * * * * * * * * * * * * * * * * * * * * * * * * *

eb|-----------------------------------------------------------------|
Bb|-----------------------------------------------------------------|
Gb|-----------------------------------------------------------------|
Db|-4-4-4-4-4-4-4-4-6-6-6-6-6-6-6-6---------------------------------|
Ab|-2-2-2-2-2-2-2-2-4-4-4-4-4-4-4-4-6-6-6-6-6-6-6-6-2~--------------|
Eb|---------------------------------4-4-4-4-4-4-4-4-0~--------------|
    * * * * * * * * * * * * * * * * * * * * * * * *

eb|-----------------------------------------------------------------|
Bb|-----------------------------------------------------------------|
Gb|-4-4-4-4-4-4-4-4-6-6-6-6-6-6-6-6-8-8-8-8-8-8-8-8-9-9-9-9-9-9-9-9-|
Db|-----------------------------------------------------------------|
Ab|-2-2-2-2-2-2-2-2-4-4-4-4-4-4-4-4-6-6-6-6-6-6-6-6-7-7-7-7-7-7-7-7-|
Eb|-----------------------------------------------------------------|

eb|-------------------------------------------------------------------------|
Bb|-------------------------------------------------------------------------|
Gb|-11-11-11-11-11-11-11-11-9-9-9-9-9-9-9-9-8-8-8-8-8-8-8-8-4-4-4-4-4-4-4-4-|
Db|-------------------------------------------------------------------------|
Ab|-9--9--9--9--9--9--9--9--7-7-7-7-7-7-7-7-6-6-6-6-6-6-6-6-2-2-2-2-2-2-2-2-|
Eb|-------------------------------------------------------------------------|

Verses
eb|-------------------------------------------------------------------------|
Bb|-------------------------------------------------------------------------|
Gb|-4~----------------------------------------------------------------------|
Db|-------------------------------------------------------------------------|
Ab|-2~----------------------------------------------------------------------|
Eb|-------------------------------------------------------------------------|

eb|----------------------------------------------------------------|
Bb|----------------------------------------------------------------|
Gb|----------------------------------------------------------------|
Db|-4--4-4-4-4-4-4-6-6-6-6-6-6-6-6-----------------9-9-9-9-9-9-9-9-|
Ab|-2--2-2-2-2-2-2-4-4-4-4-4-4-4-4-6-6-6-6-6-6-6-6-7-7-7-7-7-7-7-7-|
Eb|--------------------------------4-4-4-4-4-4-4-4-----------------|
       * * * * * * * * * * * * * * * * * * * * * * * * * * * * * *

eb|-----------------------------------------------------------------|
Bb|-----------------------------------------------------------------|
Gb|-----------------------------------------------------------------|
Db|-4-4-4-4-4-4-4-4-6-6-6-6-6-6-6-6---------------------------------|
Ab|-2-2-2-2-2-2-2-2-4-4-4-4-4-4-4-4-6-6-6-6-6-6-6-6-2-2-2-2-2-2-2-2-|
Eb|---------------------------------4-4-4-4-4-4-4-4-0-0-0-0-0-0-0-0-|
    * * * * * * * * * * * * * * * * * * * * * * * *

Chorus
eb|-----------------------------------------------------------------|
Bb|-----------------------------------------------------------------|
Gb|-4-4-4-4-4-4-4-4-6-6-6-6-6-6-6-6---------------------------------|
Db|-4-4-4-4-4-4-4-4-6-6-6-6-6-6-6-6-6-6-6-6-6-6-6-6-2-2-2-2-2-2-2-2-|
Ab|-2-2-2-2-2-2-2-2-4-4-4-4-4-4-4-4-6-6-6-6-6-6-6-6-2-2-2-2-2-2-2-2-|
Eb|---------------------------------4-4-4-4-4-4-4-4-0-0-0-0-0-0-0-0-|

After 1st Chorus
eb|---------------------------------------------------------------|
Bb|---------------------------------------------------------------|
Gb|-4-4-4-4-4-4-4-4-6-6-6-6-6-6-6-6-8-8-8-8-8-8-8-8-x-9-9--x-9-9--|
Db|---------------------------------------------------------------|
Ab|-2-2-2-2-2-2-2-2-4-4-4-4-4-4-4-4-6-6-6-6-6-6-6-6-x-7-7--x-7-7--|
Eb|---------------------------------------------------------------|

Bridge
eb|----------------------------------------------------------------|
Bb|----------------------------------------------------------------|
Gb|---8---8---11-8----8---8---11-8----8---8---11-9----9---9---11-8-|
Db|-9---9---9-------9---9---9-------9---9---9-------9---9---9------| x2
Ab|----------------------------------------------------------------|
Eb|----------------------------------------------------------------|

eb|---------------------------------------------------------------|
Bb|---------------------------------------------------------------|
Gb|-4-4-4-4-4-4-4-4-4-4-4-4-4-4-4-4-4-4-4-4-4-4-4-4-x-3-3--x-3-3--|
Db|---------------------------------------------------------------|
Ab|-2-2-2-2-2-2-2-2-2-2-2-2-2-2-2-2-2-2-2-2-2-2-2-2-x-1-1--x-1-1--|
Eb|---------------------------------------------------------------|

eb|---------------------------------------------------|
Bb|---------------------------------------------------|
Gb|-8-8-8-8-11-11-8-8-6-6-6-6-8-8-6-6-4-4-4-4-4-4-4-4-|
Db|---------------------------------------------------|
Ab|-6-6-6-6-9--9--6-6-4-4-4-4-6-6-4-4-2-2-2-2-2-2-2-2-|
Eb|---------------------------------------------------|

eb|-------------------------------------------------|
Bb|-------------------------------------------------|
Gb|-x-3-3--x-3-3--x-3-3--x-3-3--x-3-3--x-3-3--x-6/8-|
Db|-------------------------------------------------|
Ab|-x-1-1--x-1-1--x-1-1--x-1-1--x-1-1--x-1-1--x-4/6-|
Eb|-------------------------------------------------|

Order:
Intro
Verse
Chorus
Bit after first chorus
Verse
Chorus x2
Bridge
Chorus x2

| *  Palm Mute
| /  Slide up
| \  Slide down
| h  Hammer-on
| p  Pull-off
| ~  Let note ring
| +  Harmonic
| x  Mute note
=============================================================================
Tap to rate this tab
 
# A B C D E F G H I J K L M N O P Q R S T U V W X Y Z