Song name
# A B C D E F G H I J K L M N O P Q R S T U V W X Y Z

Kopek - Cocaine Chest Pains tab

Kopek - Cocaine Chest Pains off of "White Collar Lies"

Saw this band in Mobile at the Soul Kitchen opening for Seether and was really impressed 
with their live show - a TON of energy!!!!

Couldnt believe that there are no Kopek tabs so I'm going to try to put a few up....

INTRO
Part 1 - 1x
e|--------------------------------------------|
B|--------------------------------------------|
G|--------------------------------------------|
D|--------------------------------------------|
A|--------------------------------------------|
E|-3b-0-000-3b-0-0-000-3b-00-0-0-5b-0-0-000---|

Part 2 - 1x
e|-------------------------------------------|
B|-------------------------------------------|
G|-------------------------------------------|
D|-------------------------------------------|
A|-------------------------------------------|
E|-3b-000000-3b-000000-3b-000000-5b-000000---|

Part 3 - 1x
e|------------------------------------------------|
B|------------------------------------------------|
G|------------------------------------------------|
D|------------------------------------------------|
A|------------------------------------------------|
E|-3b-000000-3b-000000-3b-000000-5b-5b5b5b5b5b5b--|

INTRO - Part 2 1x

INTRO - Part 4
e|-------------------------------------------------|
B|-----------------------------------------8-8-8-8-|
G|-----------------------------------------7-7-7-7-|
D|-----------------------------------------6-6-6-6-|
A|-----------------------------------------7-7-7-7-|
E|-3b-000000-3b-000000-3b-000000-5b-000000---------|

VERSE
e|------------------------------------------------------------------------|
B|------------------------------------------------------------------------|
G|------------------------------------------------------------------------|
D|------------------------------------------------------------------------|
A|------------------------------------------------------------------------|
E|-3b-000000-3b-000000-3b-000000-5b-000000--3b-000000-3b-00000-3b-000000--|

e|-----------------------------|
B|-----------------------------|
G|-----------(5)----(7)--------|
D|------------5------7---------|
A|------------3------5---------|
E|-5b-000000--3------5---------|

INTRO Part 4 1x    v - Fill 1 (played by 2nd Guitar)
e|-------------------------------------------------|
B|-----------------------------------------8-8-8-8-|
G|-----------------7br7-5------------------7-7-7-7-|
D|-----------------------------------------6-6-6-6-|
A|-----------------------------------------7-7-7-7-|
E|-3b-000000-3b-000000-3b-000000-5b-000000---------|

VERSE - 1x

Then play...
e|------------------------------------------------|
B|------------------------------------------------|
G|------------------7br7-5------------------------|
D|------------------------------------------------|
A|------------------------------------------------|
E|-3b-000000-3b-000000-3b-000000-5b-5b5b5b5b5b5b--|


CHORUS 1 - chord shapes only - strumming is easy to pick up
e|-----------------------------|
B|-----------------------------|
G|-----------------------------|
D|-9-----5-----7-----------2---|
A|-7-----3-----5----7------2---|
E|-0----------------5------0---|
                           ^-let ring

VERSE - 1x
INTRO - Part 3 1x

CHORUS 2
e|---------------------------------------------|
B|---------------------------------------------|
G|---------------------------------------------|
D|-9-----5-----7-------------------------------|
A|-7-----3-----5-------------------------------|
E|-0--------------3b-0-0000-3b-0-5b-5b5b5b5b---|

CHORUS 1 - 1x

BRIDGE
Guitar 1
e|-------------------------------------------------------|
B|-------------------------------------------------------|
G|-------------------------------------------------------|
D|-------------------------------------------------------|
A|----------------------------------------------------7--|
E|---------------3b-0---------3b-0--------3b-0--------5--|
                                                      ^-strum repeatedly
Guitar 2
e|----------------------------------------------------------------------|
B|----------------------------------------------------------------------|
G|----------------------------------------------------------------------|
D|----------------------------------------------------------------------|
A|----------------------------------------------------------------------|
E|-----------------harmonics on low E string between 1st and 3rd frets--|

INTRO - Part 2 1x

CHORUS 2 - 1x
CHORUS 1 - 1x
Tap to rate this tab
 
# A B C D E F G H I J K L M N O P Q R S T U V W X Y Z