Song name
# A B C D E F G H I J K L M N O P Q R S T U V W X Y Z

Kopek - Cocaine Chest Pains tab

This should be pretty much all you need to play the song.

Intro and Riff for most of song.

E----------------------------------------------------------|
b----------------------------------------------------------|
G----------------------------------------------------------|   X6
D----------------------------------------------------------|
A----------------------------------------------------------|
E--3p0-0-0-0-3p0-0-0-0-3p0-0-0-0-5p0-0-0-0000--------------|

E--------------------|
b--------------------|
G---5~---7~----------|
D---5~---7~----------|
A---3~---5~----------|
E--------------------|

Pre-Chorus

E---------------------------------------------------------|
b---------------------------------------------------------|
G---------------------------------------------------------|
D---------------------------------------------------------|
A---------------------------------------------------------|
E--3p0-0-0-0-3p0-0-0-0-3p0-0-0-0-5~-5-5-5555--------------|


Chorus

E------------------------------|
b------------------------------|
G--9-----5-----7---------------|
D--9X16--5X16--7X16--7---------|
A--7-----3-----5-----7X16------|
E--------------------5---------|
Tap to rate this tab
 
# A B C D E F G H I J K L M N O P Q R S T U V W X Y Z