Song name
# A B C D E F G H I J K L M N O P Q R S T U V W X Y Z

Kopek - Subhuman tab

Kopek-subhuman
standard tuning
this is what i have so far
into/verse

|-----------------------------------|
|--------------------------3p1----1-|
|----2---2---2---2---2---2----------|
|-----------------------------------|
|--0---0---0---0---0---0--------0---|
|-----------------------------------|

ending variation

e|---------------------|
b|--3p1----1-------1---|
g|-------2---2-0-2---2-|
d|---------------------| or
a|---------------------|


|---------------------|
|--3p1----1-------3b4-|
|-------2---2-0-2-----|
|---------------------|
|---------------------|
|---------------------|
Tap to rate this tab
# A B C D E F G H I J K L M N O P Q R S T U V W X Y Z