Song name
# A B C D E F G H I J K L M N O P Q R S T U V W X Y Z

Korn - Crash tab

---------------------------------------------------
---------------------------------------------------
--------------------------------------------------- 
-5-5-5-5-5-5-8-8-8-8-8-8-8-------------------------
-3-3-3-3-3-3-6-6-6-6-6-6-6-7-7-7-7-7-7-7-3-3-3-3-3-
---------------------------5-5-5-5-5-5-5-1-1-1-1-1-
Sitting in a castle on the floor with Esmorelda


It's time to:
-------------------------------------------------------------------
-------------------------------------------------------------------
-------------------------------------------------------------------
-----------------3-------------5--------------3--------------------
-5-5-5-5---5---5-1----5--5--5--3-----5--5--5--1------5-5-5-5-5-5---
-3-3-3-3---3---3------3--3--3--------3--3--3---------3-3-3-3-3-3---
CRASH(Losin' my mind,losin' my mind,losin' my mind)Yeh it's time to

-------------------------------------------------------------------
-------------------------------------------------------------------
-------------------------------------------------------------------
----------3-3-3-3--------------------------------------------------
-5-5-5-5--1-1-1-1-3-3-3-3------------5-5-5-5-----------------------
-3-3-3-3----------1-1-1-1------------3-3-3-3-----------------------
Tap to rate this tab
# A B C D E F G H I J K L M N O P Q R S T U V W X Y Z