Guitaretab - guitar tabs
Song name
# A B C D E F G H I J K L M N O P Q R S T U V W X Y Z
Home / K / Korn / One tab

Korn - One tab

Gtr I (A D G C F A D) - 'Munky'
Gtr II (A D G C F A D) - 'Head'
Gtr III (A D G C F A D) - 'Munky (Left)'
Gtr IV (A D G C F A D) - 'Head (Right)'


 Intro
  Moderately Q=102
             Bm               Gmaj7            Bm
 4/4
  Gtr I
  W          E E E E +H       E E E E +H       E E E E +H
|----------|----------------|----------------|----------------|
|----------|----------------|----------------|----------------|
|----------|----------------|----------------|----------------|
|----------|---4---0-(0)----|---4---0-(0)----|---4---0-(0)----|
|----------|-2---2----------|----------------|-2---2----------|
|----------|----------------|-3---3----------|----------------|
|----------|----------------|----------------|----------------|


  Gmaj7           Bm               D/A              Gmaj7            N.C.
                                                                    2/4
  E E E Q  Q.     E E E E +H       E E E E +H       E E E E +H       E e E e
|---------------|----------------|----------------|----------------|---------|
|---------------|----------------|----------------|----------------|---------|
|----------0----|----------------|----------------|----------------|---------|
|---4---0-------|---4---0-(0)----|---4---0-(0)----|---4---0-(0)----|---------|
|---------------|-2---2----------|-0---0----------|----------------|---2---2-|
|-3---3---------|----------------|----------------|-3---3----------|-0---2---|
|---------------|----------------|----------------|----------------|---------|


  Bm                              Gmaj7
 4/4
  E E   E E       +H               E  E   E E +H
|-------------------------------|------------------------|
|-------------------------------|------------------------|
|-------------------------------|------------------------|
|---4-----0-------(0)-----------|-----4-----0-(0)--------|
|-2-----2-----------------------|------------------------|
|-------------------------------|--3------3--------------|
|-------------------------------|------------------------|
|
| Gtr II
| E S S e S +E        +S  +Q.     +E  S S E E  S S E E E
|-------------------------------|------------------------|
|-------------------------------|-----3p2------3p2-----3-|
|-------2-4-(4)b6r====(4)-(4)---|-(4)-----4--------2-----|
|---2h4-------------------------|------------------------|
|-------------------------------|------------------------|
|-------------------------------|------------------------|
|-------------------------------|------------------------|


  Bm                   Gmaj7
  E   E   E E +H       E  E   E   E +H
|--------------------|--------------------------|
|--------------------|--------------------------|
|--------------------|--------------------------|
|-----4-----0-(0)----|----4-------0-(0)---------|
|-2-------2----------|--------------------------|
|--------------------|-3------3-----------------|
|--------------------|--------------------------|
|
| S S H..              E  S e   S e  S e S e E
|--------------------|--------------------------|
|-3p2----------------|--------------------------|
|-----4--------------|---11p9---9p7--7p6-6p4-2--|
|--------------------|--------------------------|
|--------------------|--------------------------|
|--------------------|--------------------------|
|--------------------|--------------------------|


  Bm                         D/A
  E    E  E  E +H            E E E E +H
|--------------------------|---------------------|
|--------------------------|---------------------|
|--------------------------|---------------------|
|------4-----0-(0)---------|---4---0-(0)---------|
|-2-------2----------------|-0---0---------------|
|--------------------------|---------------------|
|--------------------------|---------------------|
|
| S E.   +H          e S S   H        E  E S S e
|--------------------------|---------------------|
|----------------------2h3-|-2-----------2-3p2---|
|-2h4----(4)--------/4-----|---------/4--------2-|
|--------------------------|---------------------|
|--------------------------|---------------------|
|--------------------------|---------------------|
|--------------------------|---------------------|


  Gmaj7                 N.C.
  E    E   E E +H       E e E e E e a E E
|---------------------|--------------------|
|---------------------|--------------------|
|---------------------|--------------------|
|------4-----0-(0)----|--------------------|
|---------------------|---2---2---2-2h4-2--|
|-3--------3----------|-0---2---0----------|
|---------------------|--------------------|
|
| S S +H..              W
|---------------------|--------------------|
|---------------------|--------------------|
|-2h4-(4)-------------|--------------------|
|---------------------|--------------------|
|---------------------|--------------------|
|---------------------|--------------------|
|---------------------|--------------------|


   Verse
    Faster Q=112
    $
    Bm               Gmaj7           Bm               Gmaj7
   3/4
    E  E E S S E E   E E E E S S E   E  E E S S E E    E E  E E S S E
||-----------------|---------------|----------------|-----------------|
||-----------------|---------------|----------------|-----------------|
||o----------------|---------------|----------------|-----------------|
||-----4---0-0-4-0-|---4---0-4-4-0-|----4---0-0-4-0-|----4----0-4-4-0-|
||o-2----2---------|---------------|-2----2---------|-----------------|
||-----------------|-3---3---------|----------------|--3----3---------|
||-----------------|---------------|----------------|-----------------|
|
|   H.               H       Q       H.                Q    Q   Q
||-----------------|---------------|----------------|-----------------|
||-----------------|---------------|----------------|-----------------|
||o----------------|---------------|----------------|-----------------|
||--9--------------|-9-------7-----|-9--------------|-11---11---7-----|
||o----------------|---------------|----------------|-----------------|
||-----------------|---------------|----------------|-----------------|
||-----------------|---------------|----------------|-----------------|


  Bm               D/A               Gmaj7             N.C.
                                                      2/4
  E  E E S S E E    E  E E E S S E    E  E E S S E E    E e  E e
|----------------|-----------------|-----------------|------------||
|----------------|-----------------|-----------------|------------||
|----------------|-----------------|-----------------|-----------o||
|----4---0-0-4-0-|-----4---0-4-4-0-|-----4---0-0-4-0-|------------||
|-2----2---------|--0----0---------|-----------------|----2----2-o||
|----------------|-----------------|--3----3---------|--0----2----||
|----------------|-----------------|-----------------|------------||
|
| H.                H.                H.                Q    Q
|----------------|-----------------|-----------------|------------||
|----------------|-----------------|-----------------|------------||
|----------------|-----------------|-----------------|-----------o||
|-9--------------|-11--------------|-12--------------|-12---11----||
|----------------|-----------------|-----------------|-----------o||
|----------------|-----------------|-----------------|------------||
|----------------|-----------------|-----------------|------------||


 Chorus
                                          To Coda
  G5   A5B5 A5  G5 F#5B5   A5   B5C#5B5  A5 C5 C#5
 3/4
  Gtrs III, IV
  Q.   E  E E   Q  Q  Q    Q.   E  E E   Q  Q  Q
|-------------|----------|-------------|----------|
|-------------|----------|-------------|----------|
|------2-/4-2-|-------4--|-2----4-/6-4-|-2--5--6--|
|-5----2-/4-2-|-5--4--4--|-2----4-/6-4-|-2--5--6--|
|-5----0-/2-0-|-5--4--2--|-0----2-/4-2-|-0--3--4--|
|-3-----------|-3--2-----|-------------|----------|
|-------------|----------|-------------|----------|


                                     D.S. al Coda
  D5           G5           F5           E5
  Gtr III
     PM----|      PM----|      PM----|
  Q  E E E E   Q  E E E E   Q  E E E E   H     Q
|------------|------------|------------|----------|
|------------|------------|------------|----------|
|------------|------------|------------|----------|
|------------|-5----------|-3----------|-2--------|
|-5----------|-5--5-5-5-5-|-3--3-3-3-3-|-2--------|
|-5--5-5-5-5-|-3--3-3-3-3-|-1--1-1-1-1-|-0--------|
|-3--3-3-3-3-|------------|------------|----------|
|
| Gtr IV                                      Gtr II
|    PM----|      PM----|      PM----|
| Q  E E E E   Q  E E E E   Q  E E E E   H     Q
|------------|------------|------------|----------|
|------------|------------|------------|----------|
|------------|------------|------------|------/5--|
|------------|-5----------|-3----------|-2--------|
|-5----------|-5--5-5-5-5-|-3--3-3-3-3-|-2----/3--|
|-5--5-5-5-5-|-3--3-3-3-3-|-1--1-1-1-1-|-0--------|
|-3--3-3-3-3-|------------|------------|----------|


 Guitar Solo
  &
  D5             G5             F5             E5
       PM----|        PM----|        PM----|
   Q   E E E E    Q   E E E E    Q   E E E E    H      S S S S
|--------------|--------------|--------------|-----------------|
|--------------|--------------|--------------|--------10p7---7-|
|--------------|--------------|--------------|-------------7---|
|--------------|--5-----------|--3-----------|--2--------------|
|--5-----------|--5---5-5-5-5-|--3---3-3-3-3-|--2--------------|
|--5---5-5-5-5-|--3---3-3-3-3-|--1---1-1-1-1-|--0--------------|
|--3---3-3-3-3-|--------------|--------------|-----------------|
|
|  H.             H.             Q.    E Q      H.
|--------------|--------------|--------------|-----------------|
|--------------|--------------|--------------|-----------------|
|-^7-----------|-^7-----------|-^7-------7---|-^7--------------|
|-^7-----------|-^7-----------|-^7-----7-----|-^7--------------|
|-^5-----------|-^5-----------|-^5-----------|-^5--------------|
|--------------|--------------|--------------|-----------------|
|--------------|--------------|--------------|-----------------|


   Q.   E E S S    H     Q      E  E E  E E E    H      S  S  S  S
|---------------|-----------|-/10--8-7----7-8-|--------17p14----14-|
|-10----8-7-8p7-|-----------|----------10-----|--8-----------15----|
|---------------|--7--------|-----------------|--------------------|
|---------------|-----------|-----------------|--------------------|
|---------------|-----------|-----------------|--------------------|
|---------------|-----------|-----------------|--------------------|
|---------------|-----------|-----------------|--------------------|
|
| +H.              H.          +Q.      E Q      H.
|---------------|-----------|-----------------|--------------------|
|---------------|-----------|-----------------|--------------------|
|-(7)-----------|-^7--------|--(7)--------7---|-^7-----------------|
|-(7)-----------|-^7--------|--(7)------7-----|-^7-----------------|
|-(5)-----------|-^5--------|--(5)------------|-^5-----------------|
|---------------|-----------|-----------------|--------------------|
|---------------|-----------|-----------------|--------------------|


   Q    E  E  E  S  S    Q.    E  E  E
|-17---17-15-14-15p14-|-------14-15-17-|
|---------------------|-15-------------|
|---------------------|----------------|
|---------------------|----------------|
|---------------------|----------------|
|---------------------|----------------|
|---------------------|----------------|
|
| +H.                    H.
|---------------------|----------------|
|---------------------|----------------|
|-(7)-----------------|-^7-------------|
|-(7)-----------------|-^7-------------|
|-(5)-----------------|-^5-------------|
|---------------------|----------------|
|---------------------|----------------|

[ Tab from: http://www.guitaretab.com/k/korn/121613.html ]
   |--3--|  |--3--|  |--3--|  |--3--|
   S  S  S  S  S  S  S  S  S  S  S  S  E   a   E    H     Q
|-19p17p15-19p17p15-19p17p15-19p17p15-14-(14)s15-|-------------|
|------------------------------------------------|-15----------|
|------------------------------------------------|-------------|
|------------------------------------------------|-------------|
|------------------------------------------------|-------------|
|------------------------------------------------|-------------|
|------------------------------------------------|-------------|
|
|  Q.                         E        Q            H.
|------------------------------------------------|-------------|
|------------------------------------------------|-------------|
|-^7-----------------------------------7---------|-^7----------|
|-^7--------------------------7------------------|-^7----------|
|-^5---------------------------------------------|-^5----------|
|------------------------------------------------|-------------|
|------------------------------------------------|-------------|


   Chorus
    G5   A5B5 A5  G5 F#5B5   A5   B5C#5B5  A5 C5 C#5
    Gtrs III, IV
    Q.   E  E E   Q  Q  Q    Q.   E  E E   Q  Q  Q
||--------------|----------|-------------|------------||
||--------------|----------|-------------|------------||
||o------2-/4-2-|-------4--|-2----4-/6-4-|-2--5--6---o||
||--5----2-/4-2-|-5--4--4--|-2----4-/6-4-|-2--5--6----||
||o-5----0-/2-0-|-5--4--2--|-0----2-/4-2-|-0--3--4---o||
||--3-----------|-3--2-----|-------------|------------||
||--------------|----------|-------------|------------||


  G5   A5B5A5  G5 F#5B5   A5           G5
  Gtr III
       PM--|                   PM  PM         PM  PM
  Q.   E E E   Q  Q  Q    Q  E E E E    Q   E E E E
|------------|----------|------------|--------------|
|------------|----------|------------|--------------|
|------------|-------4--|-2--2---2---|--------------|
|-5----2-4-2-|-5--4--4--|-2--2-2-2-2-|--5---5---5---|
|-5----0-2-0-|-5--4--2--|-0--0-0-0-0-|--5---5-5-5-5-|
|-3----------|-3--2-----|------------|--3---3-3-3-3-|
|------------|----------|------------|--------------|
|
| Gtr IV
|      PM--|
| Q.   E E E   Q  Q  Q    Q  E E E E   +H.
|------------|----------|------------|--------------|
|------------|----------|------------|--------------|
|------------|-------4--|-5--5-4-5s7-|-(7)----------|
|-5----2-4-2-|-5--4--4--|------------|--------------|
|-5----0-2-0-|-5--4--2--|-3--3-2-3s5-|-(5)----------|
|-3----------|-3--2-----|------------|--------------|
|------------|----------|------------|--------------|


  B5           C5           A5           G5
       PM  PM       PM  PM       PM  PM       PM  PM
  Q  E E E E   Q  E E E E   Q  E E E E   Q  E E E E
|------------|------------|------------|------------|
|------------|------------|------------|------------|
|-4--4---4---|-5--5---5---|-2--2---2---|------------|
|-4--4-4-4-4-|-5--5-5-5-5-|-2--2-2-2-2-|-5--5---5---|
|-2--2-2-2-2-|-3--3-3-3-3-|-0--0-0-0-0-|-5--5-5-5-5-|
|------------|------------|------------|-3--3-3-3-3-|
|------------|------------|------------|------------|
|
| Q  Q   Q     Q  Q   Q     Q  E E E E   Q  Q   Q
|------------|------------|------------|------------|
|------------|------------|------------|------------|
|-8--8---8---|-9--9---9---|-5--5-4-5s7-|-4--4---4---|
|------------|------------|------------|------------|
|-6--6---6---|-7--7---7---|-3--3-2-3s5-|-2--2---2---|
|------------|------------|------------|------------|
|------------|------------|------------|------------|


  B5            C5           A5           G5
        PM  PM       PM  PM       PM  PM--------|
   Q  E E E E   Q  E E E E   Q  E E E E   E E E E E E
|-------------|------------|------------|-------------|
|-------------|------------|------------|-------------|
|--4--4---4---|-5--5---5---|-2--2---2---|-------------|
|--4--4-4-4-4-|-5--5-5-5-5-|-2--2-2-2-2-|---------5-5-|
|--2--2-2-2-2-|-3--3-3-3-3-|-0--0-0-0-0-|-5-5-5-5-5-5-|
|-------------|------------|------------|-3-3-3-3-3-3-|
|-------------|------------|------------|-------------|
|
|                                         PM----|
|  Q  Q   Q     Q  Q   Q     Q  E E E E   E E E E E E
|-------------|------------|------------|-------------|
|-------------|------------|------------|-------------|
|-/8--8---8---|-9--9---9---|-5--5-5-5-5-|-------------|
|-------------|------------|------------|---------5-5-|
|-/6--6---6---|-7--7---7---|-3--3-3-3-3-|-5-5-5-5-5-5-|
|-------------|------------|------------|-3-3-3-3-3-3-|
|-------------|------------|------------|-------------|


  B5           C5           A5           G5
       PM  PM       PM  PM               PM----|
  Q  E E E E   Q  E E E E   Q  E E E E   E E E E E E
|------------|------------|------------|-------------|
|------------|------------|------------|-------------|
|-4--4---4---|-5--5---5---|-2--2-2-2-2-|-------------|
|-4--4-4-4-4-|-5--5-5-5-5-|-2--2-2-2-2-|---------5-5-|
|-2--2-2-2-2-|-3--3-3-3-3-|-0--0-0-0-0-|-5-5-5-5-5-5-|
|------------|------------|------------|-3-3-3-3-3-3-|
|------------|------------|------------|-------------|
|
|      PM  PM       PM  PM               PM----|
| Q  E E E E   Q  E E E E   Q  E E E E   E E E E E E
|------------|------------|------------|-------------|
|------------|------------|------------|-------------|
|-4--4---4---|-5--5---5---|-5--5-5-5-5-|-------------|
|-4--4-4-4-4-|-5--5-5-5-5-|------------|---------5-5-|
|-2--2-2-2-2-|-3--3-3-3-3-|-3--3-3-3-3-|-5-5-5-5-5-5-|
|------------|------------|------------|-3-3-3-3-3-3-|
|------------|------------|------------|-------------|


  B5           C5           A5
                           4/4
       PM  PM       PM  PM
  Q  E E E E   Q  E E E E   W          +W
|------------|------------|----------|--------|
|------------|------------|----------|--------|
|-4--4---4---|-5--5---5---|-2--------|-(2)----|
|-4--4-4-4-4-|-5--5-5-5-5-|-2--------|-(2)----|
|-2--2-2-2-2-|-3--3-3-3-3-|-0--------|-(0)----|
|------------|------------|----------|--------|
|------------|------------|----------|--------|
|
|      PM  PM       PM  PM
| Q  E E E E   Q  E E E E   W          +W
|------------|------------|----------|--------|
|------------|------------|----------|--------|
|-4--4---4---|-5--5---5---|-5--------|-(5)----|
|-4--4-4-4-4-|-5--5-5-5-5-|----------|--------|
|-2--2-2-2-2-|-3--3-3-3-3-|-3--------|-(3)----|
|------------|------------|----------|--------|
|------------|------------|----------|--------|


 Bridge-Outro
  E5
  Gtrs III, IV
  |-3-| |-3-|     |-3-| |-3-|       |-3-| |-3-|     |-3-| |-3-|
  S S S S S S e E S S S S S S e E   S S S S S S e E S S S S S S e E
|---------------------------------|---------------------------------|
|---------------------------------|---------------------------------|
|---------------------------------|---------------------------------|
|---------------------------------|---------------------------------|
|---------------------------------|---------------------------------|
|-0-0-0-0-0-0-0---0-0-0-0-0-0-0---|-0-0-0-0-0-0-0---0-0-0-0-0-0-0---|
|---------------------------------|---------------------------------|


                                                                F5
  |-3-| |-3-|    |-3-| |-3-|       |-3-| |-3-|    |-3-| |-3-|
  S S S S S S Q  S S S S S S e E   S S S S S S Q  S S S S S S E E
|--------------------------------|--------------------------------|
|--------------------------------|--------------------------------|
|--------------------------------|--------------------------------|
|-------------2------------------|-------------2--------------2-3-|
|-------------2------------------|-------------2--------------2-3-|
|-0-0-0-0-0-0----0-0-0-0-0-0-0---|-0-0-0-0-0-0----0-0-0-0-0-0-----|
|--------------------------------|--------------------------------|


    E5                                                              F5
    |-3-| |-3-|     |-3-| |-3-|       |-3-| |-3-|     |-3-| |-3-|
    S S S S S S e E S S S S S S e E   S S S S S S e E S S S S S S E E
||----------------------------------|-----------------------------------||
||----------------------------------|-----------------------------------||
||o---------------------------------|----------------------------------o||
||----------------------------------|-----------------------------2-3---||
||o---------------------------------|-----------------------------2-3--o||
||--0-0-0-0-0-0-0---0-0-0-0-0-0-0---|-0-0-0-0-0-0-0---0-0-0-0-0-0-------||
||----------------------------------|-----------------------------------||


    E5
    |-3-| |-3-|    |-3-| |-3-|       |-3-| |-3-|    |-3-| |-3-|
    S S S S S S Q  S S S S S S E E   S S S S S S Q  S S S S S S E E
||---------------------------------|----------------------------------||
||---------------------------------|----------------------------------||
||o--------------------------------|---------------------------------o||
||---------------------------------|----------------------------------||
||o-------------7--------------7-8-|-------------5--------------5-8--o||
||--0-0-0-0-0-0----0-0-0-0-0-0-----|-0-0-0-0-0-0----0-0-0-0-0-0-------||
||---------------------------------|----------------------------------||


                                                                    F5
    |-3-| |-3-|     |-3-| |-3-|       |-3-| |-3-|     |-3-| |-3-|
    S S S S S S e E S S S S S S e E   S S S S S S e E S S S S S S E E
||----------------------------------|-----------------------------------||
||----------------------------------|-----------------------------------||
||o---------------------------------|----------------------------------o||
||----------------------------------|-----------------------------2-3---||
||o---------------------------------|-----------------------------2-3--o||
||--0-0-0-0-0-0-0---0-0-0-0-0-0-0---|-0-0-0-0-0-0-0---0-0-0-0-0-0-------||
||----------------------------------|-----------------------------------||


    E5                                F5
    |-3-| |-3-|   |-3-| |-3-|   |-3-|
    S S S S S S E S S S S S S E S S S E
||--------------------------------------|
||--------------------------------------|
||o-------------------------------------|
||--------------2-------------2-------3-|
||o-------------2-------------2-------3-|
||--0-0-0-0-0-0---0-0-0-0-0-0---0-0-0---|
||--------------------------------------|


  E5                                F5
  |-3-| |-3-|   |-3-| |-3-|   |-3-|
  S S S S S S E S S S S S S E S S S E
|---------------------------------------||
|---------------------------------------||
|--------------------------------------o||
|-------------2-------------2-------3---||
|-------------2-------------2-------3--o||
|-0-0-0-0-0-0---0-0-0-0-0-0---0-0-0-----||
|---------------------------------------||


  E5
  |-3-| |-3-|   |-3-| |-3-|   |-3-|     |-3-| |-3-|   |-3-| |-3-|
  S S S S S S e S S S S S S e S S S e   S S S S S S e S S S S S S e Q
|-------------------------------------|--------------------------------*|
|-------------------------------------|--------------------------------*|
|-------------------------------------|--------------------------------*|
|-------------------------------------|--------------------------------*|
|-------------------------------------|--------------------------------*|
|-0-0-0-0-0-0-0-0-0-0-0-0-0-0-0-0-0-0-|-0-0-0-0-0-0-0-0-0-0-0-0-0-0----*|
|-------------------------------------|--------------------------------*|




--------------------------------------------------------------------------------


Duration Legend
---------------
W - whole; H - half; Q - quarter; E - 8th; S - 16th; T - 32nd; X - 64th; a - acciaccatura
+ - note tied to previous; . - note dotted; .. - note double dotted
Uncapitalized letters represent notes that are staccato (1/2 duration)
Irregular groupings are notated above the duration line
Duration letters will always appear directly above the note/fret number it represents the
duration for.  Duration letters with no fret number below them represent rests.  Multi-
bar rests are notated in the form Wxn, where n is the number of bars to rest for.  Low
melody durations appear below the staff

Tablature Legend
----------------
 h   - hammer-on
 p   - pull-off
 b   - bend
 pb  - pre-bend
 r   - bend release (if no number after the r, then release immediately)
 /\  - slide into or out of (from/to "nowhere")
 s   - legato slide
 S   - shift slide
 - natural harmonic
[n]  - artificial harmonic
n(n) - tapped harmonic
 ~   - vibrato
 tr  - trill
 T   - tap
 TP  - trem. picking
 PM  - palm muting
\n/  - tremolo bar dip; n = amount to dip
 \n  - tremolo bar down
 n/  - tremolo bar up
/n\  - tremolo bar inverted dip
 =   - hold bend; also acts as connecting device for hammers/pulls
 <> - volume swell (louder/softer)
 x   - on rhythm slash represents muted slash
 o   - on rhythm slash represents single note slash

Misc Legend
-----------
 |  - bar
||  - double bar
||o - repeat start
o|| - repeat end
*|  - double bar (ending)
 :  - bar (freetime)
 $  - Segno
 &  - Coda
Tempo markers -  = BPM(8/16=s8/s16), where s8 = swing 8ths, s16 = swing 16ths


Related for One tab
×
One