Song name
# A B C D E F G H I J K L M N O P Q R S T U V W X Y Z

Korn - No Place To Hide tab

Gtr I (A D G C F A D) - 'Guitar 1'
Gtr II (A D G C F A D) - 'Guitar 2'
Gtr III (A D G C F A D) - 'Guitar 1 clean'


 Intro
  Q=110
                 N.C.
 4/4
  Gtr I
  Wx2             S  e  S  e  S  e  S  e  S  S  S  S  4x
|------------||---------------------------------------||
|------------||--14s15-15s16-14s15-15s16-14s15-15s16--||
|------------||o-17s18-18s19-17s18-18s19-17s18-18s19-o||
|------------||---------------------------------------||
|------------||o-------------------------------------o||
|------------||---------------------------------------||
|------------||---------------------------------------||
|
| Gtr II
| Wx2             S  e  S  e  S  e  S  e  S  S  S  S  4x
|------------||---------------------------------------||
|------------||---9s10-10s11--9s10-10s11--9s10-10s11--||
|------------||o-12s13-13s14-12s13-13s14-12s13-13s14-o||
|------------||---------------------------------------||
|------------||o-------------------------------------o||
|------------||---------------------------------------||
|------------||---------------------------------------||


      C5C#5 D5  D#5 E5D#E5  F5
      S e S e S e S e S S S S   4x
|-||----------------------------||
|-||----------------------------||
|-||o--------------------------o||
|-||----------------------------||
|-||o-3s4-4s5-5s6-6s7-6s7-7s8--o||
|-||--3s4-4s5-5s6-6s7-6s7-7s8---||
|-||--1s2-2s3-3s4-4s5-4s5-5s6---||
|
|     S e S e S e S e S S S S   4x
|-||----------------------------||
|-||----------------------------||
|-||o--------------------------o||
|-||----------------------------||
|-||o-3s4-4s5-5s6-6s7-6s7-7s8--o||
|-||--3s4-4s5-5s6-6s7-6s7-7s8---||
|-||--1s2-2s3-3s4-4s5-4s5-5s6---||


                                            1st and 2nd Verses
    C5C#5   D5    D#5   E5  D#E5  F5         N.C.
    S S S S S S S S S S S S S S S  S  4x     W          W
||------------------------------------||-||-----------|------|
||------------------------------------||-||-----------|------|
||o----------------------------------o||-||o----------|------|
||------------------------------------||-||-----------|------|
||o-3s4-4-4s5-5-5s6-6-6s7-7-6s7-7s=8-o||-||o----------|------|
||--3s4-4-4s5-5-5s6-6-6s7-7-6s7-7s=8--||-||-----------|------|
||--1s2-2-2s3-3-3s4-4-4s5-5-4s5-5s=6--||-||-----------|------|
|
|   S S S S S S S S S S S S S S S  S  4x     W          W
||------------------------------------||-||-----------|------|
||------------------------------------||-||-----------|------|
||o-5s6-6-6s7-7-7s8-8-8s9-9-8s9-9s10-o||-||o----------|------|
||--5s6-6-6s7-7-7s8-8-8s9-9-8s9-9s10--||-||-----------|------|
||o-3s4-4-4s5-5-5s6-6-6s7-7-6s7-7s=8-o||-||o----------|------|
||------------------------------------||-||-----------|------|
||------------------------------------||-||-----------|------|


                         ~~~    ~~         ~~~
  W          W           Q   E  E  +E   E  E  E
|----------|----------|-------------------------|
|----------|----------|-18s=12s18-(18)s12s18s12-|
|----------|----------|-------------------------|
|----------|----------|-------------------------|
|----------|----------|-------------------------|
|----------|----------|-------------------------|
|----------|----------|-------------------------|
|
|                        ~~~    ~~
| W          W           Q   E  E   H
|----------|----------|-------------------------|
|----------|----------|-13s=15s13---------------|
|----------|----------|-------------------------|
|----------|----------|-------------------------|
|----------|----------|-------------------------|
|----------|----------|-------------------------|
|----------|----------|-------------------------|


              ~~~    ~~         ~~~
  W           Q   E  E  +E   E  E  E
|----------|-------------------------|
|----------|-18s=12s18-(18)s12s18s12-|
|----------|-------------------------|
|----------|-------------------------|
|----------|-------------------------|
|----------|-------------------------|
|----------|-------------------------|
|
|             ~~~    ~~
| W           Q   E  E   H
|----------|-------------------------|
|----------|-13s=15s13---------------|
|----------|-------------------------|
|----------|-------------------------|
|----------|-------------------------|
|----------|-------------------------|
|----------|-------------------------|


             Chorus
              Badd9
                  PM|         PM|
  W            Q  S S  E  +E  S S  E     +E
|----------||--------------------------------|
|----------||--5-------5--(5)------5-----(5)-|
|----------||--8-------8--(8)------8b9---(8)-|
|----------||--------------------------------|
|----------||--------------------------------|
|----------||--------------------------------|
|----------||-----0-0---------0-0------------|
|
|              ~~ PM|  ~~~~~~~PM|
| W            Q  S S  E  +E  S S  E     +E
|----------||-11------11-(11)-----11b14-(11)-|
|----------||--------------------------------|
|----------||--------------------------------|
|----------||--------------------------------|
|----------||--------------------------------|
|----------||--------------------------------|
|----------||-----0-0---------0-0------------|


      PM|
   Q  S S  E  +E  E    E      E
|--------------------------------|
|--5-------5--(5)-0-----------0--|
|--8-------8--(8)------5---------|
|--------------------------------|
|--------------------------------|
|--------------------------------|
|-----0-0------------------------|
|
|  ~~ PM|  ~~~~~~~PM|
|  Q  S S  E  +E  S S  E     +E
|-11------11-(11)-----11b14-(11)-|
|--------------------------------|
|--------------------------------|
|--------------------------------|
|--------------------------------|
|--------------------------------|
|-----0-0---------0-0------------|


      PM|         PM|                  PM|
   Q  S S  E  +E  S S  E     +E     Q  S S  E  +E  S S  E      E
|--------------------------------|--------------------------------|
|--5-------5--(5)------5-----(5)-|--5-------5--(5)------0---------|
|--8-------8--(8)------8b9---(8)-|--8-------8--(8)----------------|
|--------------------------------|-----------------7-7---------7--|
|--------------------------------|--------------------------------|
|--------------------------------|--------------------------------|
|-----0-0---------0-0------------|-----0-0------------------------|
|
|  ~~ PM|  ~~~~~~~PM|               ~~ PM|  ~~~~~~~PM|
|  Q  S S  E  +E  S S  E     +E     Q  S S  E  +E  S S  E     +E
|-11------11-(11)-----11b14-(11)-|-11------11-(11)-----11b14-(11)-|
|--------------------------------|--------------------------------|
|--------------------------------|--------------------------------|
|--------------------------------|--------------------------------|
|--------------------------------|--------------------------------|
|--------------------------------|--------------------------------|
|-----0-0---------0-0------------|-----0-0---------0-0------------|


      PM|         PM|
   Q  S S  E  +E  S S  E     +E
|--------------------------------|
|--5-------5--(5)------5-----(5)-|
|--8-------8--(8)------8b9---(8)-|
|--------------------------------|
|--------------------------------|
|--------------------------------|
|-----0-0---------0-0------------|
|
|  ~~ PM|  ~~~~~~~PM|
|  Q  S S  E  +E  S S  E     +E
|-11------11-(11)-----11b14-(11)-|
|--------------------------------|
|--------------------------------|
|--------------------------------|
|--------------------------------|
|--------------------------------|
|-----0-0---------0-0------------|


      PM|                              PM|         PM|
   Q  S S  E  +E  E    E      E     Q  S S  E  +E  S S  E     +E
|--------------------------------|--------------------------------|
|--5-------5--(5)-0-----------0--|--5-------5--(5)------5-----(5)-|
|--8-------8--(8)------5---------|--8-------8--(8)------8b9---(8)-|
|--------------------------------|--------------------------------|
|--------------------------------|--------------------------------|
|--------------------------------|--------------------------------|
|-----0-0------------------------|-----0-0---------0-0------------|
|
|  ~~ PM|  ~~~~~~~PM|               ~~ PM|  ~~~~~~~PM|
|  Q  S S  E  +E  S S  E     +E     Q  S S  E  +E  S S  E     +E
|-11------11-(11)-----11b14-(11)-|-11------11-(11)-----11b14-(11)-|
|--------------------------------|--------------------------------|
|--------------------------------|--------------------------------|
|--------------------------------|--------------------------------|
|--------------------------------|--------------------------------|
|--------------------------------|--------------------------------|
|-----0-0---------0-0------------|-----0-0---------0-0------------|


  1.
      PM|
   Q  S S  E  +E  S S  E      E
|--------------------------------|
|--5-------5--(5)------0---------|
|--8-------8--(8)----------------|
|-----------------7-7---------7--|
|--------------------------------|
|--------------------------------|
|-----0-0------------------------|
|
|  ~~ PM|  ~~~~~~~PM|
|  Q  S S  E  +E  S S  E     +E
|-11------11-(11)-----11b14-(11)-|
|--------------------------------|
|--------------------------------|
|--------------------------------|
|--------------------------------|
|--------------------------------|
|-----0-0---------0-0------------|


                                  2.
  N.C.
                                      PM|
  W                                Q  S S  E  +E  S S  E      E
|------------------------------||---------------------------------
|------------------------------||--5-------5--(5)------0----------
|-----------------------------o||--8-------8--(8)-----------------
|------------------------------||-----------------7-7---------7---
|-----------------------------o||---------------------------------
|------------------------------||---------------------------------
|------------------------------||-----0-0-------------------------
|
|                                  ~~ PM|  ~~~~~~~PM|
| S S +S  S +S   S S  S  H         Q  S S  E  +E  S S  E     +E
|-7s8-(8)s9-(9)s10-7s(0)-------||-11------11-(11)-----11b14-(11)--
|------------------------------||---------------------------------
|-----------------------------o||---------------------------------
|------------------------------||---------------------------------
|-----------------------------o||---------------------------------
|------------------------------||---------------------------------
|------------------------------||-----0-0---------0-0-------------


   Bridge
    C5C#5 D5  D#5 E5D#E5  F5        C5C#5   D5    D#5   E5  D#E5  F5
    S e S e S e S e S S S S  4x     S S S S S S S S S S S S S S S  S   4x
||---------------------------||-||-------------------------------------||
||---------------------------||-||-------------------------------------||
||o-------------------------o||-||o-----------------------------------o||
||---------------------------||-||-------------------------------------||
||o-3s4-4s5-5s6-6s7-6s7-7s8-o||-||o-3s4-4-4s5-5-5s6-6-6s7-7-6s7-7s=8--o||
||--3s4-4s5-5s6-6s7-6s7-7s8--||-||--3s4-4-4s5-5-5s6-6-6s7-7-6s7-7s=8---||
||--1s2-2s3-3s4-4s5-4s5-5s6--||-||--1s2-2-2s3-3-3s4-4-4s5-5-4s5-5s=6---||
|
|   S e S e S e S e S S S S  4x     S S S S S S S S S S S S S S S  S   4x
||---------------------------||-||-------------------------------------||
||---------------------------||-||-------------------------------------||
||o-------------------------o||-||o-5s6-6-6s7-7-7s8-8-8s9-9-8s9-9s10--o||
||---------------------------||-||--5s6-6-6s7-7-7s8-8-8s9-9-8s9-9s10---||
||o-3s4-4s5-5s6-6s7-6s7-7s8-o||-||o-3s4-4-4s5-5-5s6-6-6s7-7-6s7-7s=8--o||
||--3s4-4s5-5s6-6s7-6s7-7s8--||-||-------------------------------------||
||--1s2-2s3-3s4-4s5-4s5-5s6--||-||-------------------------------------||


             Interlude
              B6                     C6/B
 3/4         4/4
              Gtr III
  H.           W                      W
|---------||-----------------------|----------------------|
|---------||-----------------------|----------------------|
|---------||o-^8-------------------|-^9-------------------|
|---------||--^6-------------------|-^7-------------------|
|---------||o----------------------|----------------------|
|---------||--^7-------------------|-^8-------------------|
|---------||-----------------------|----------------------|
|
|             Gtr II
|              PM-------------|       PM-------------|
| H.           S S e E. S S S e Q     S S e E. S S S e Q
|---------||-----------------------|----------------------|
|---------||-----------------------|----------------------|
|---------||o----------------------|----------------------|
|---------||-----------------------|----------------------|
|---------||o----------------------|----------------------|
|---------||-----------------------|----------------------|
|---------||---0-0-0----0-0-0-0----|--0-0-0----0-0-0-0----|


  B6                     C5/B
   W                       H        H
|----------------------|------------------||
|----------------------|------------------||
|-^8-------------------|-----------------o||
|-^6-------------------|-^10--------------||
|----------------------|-^10-------------o||
|-^7-------------------|-^-8--------------||
|----------------------|------------------||
|
|  PM-------------|        PM--|
|  S S e E. S S S e Q      S S e Q  H
|----------------------|------------------||
|----------------------|------------------||
|----------------------|-----------------o||
|----------------------|------------------||
|----------------------|-----------------o||
|----------------------|------------------||
|--0-0-0----0-0-0-0----|---0-0-0----------||


    N.C.(B)
    Gtrs I, II
    S S e S e S e E  E.    +S
||------------------11b14-(11)-|
||-----------------------------|
||o----------------------------|
||-----------------------------|
||o-------2-2------------------|
||-----------------------------|
||--0-0-0-----0-0-0------------|


 1.,2.,3.                   4.
  S S E S e S E E S S E  4x S S E S e S E E S E.
|------------------------||-----------------------|
|------------------------||-----------------------|
|-----------------------o||-----------------------|
|------------------------||-----------------------|
|-------2---------2-2---o||-------2---------2-2---|
|------------------------||-----------------------|
|-0-0-0---0-0-0-0--------||-0-0-0---0-0-0-0-------|


    C5C#5 D5  D#5 E5D#E5  F5
                               2/4
    S e S e S e S e S S S S  4x H
||---------------------------||------|
||---------------------------||------|
||o-------------------------o||------|
||---------------------------||------|
||o-3s4-4s5-5s6-6s7-6s7-7s8-o||------|
||--3s4-4s5-5s6-6s7-6s7-7s8--||------|
||--1s2-2s3-3s4-4s5-4s5-5s6--||------|


   Outro Chorus
    Badd9
   4/4
    Gtr I
        PM|         PM|
     Q  S S  E  +E  S S  E     +E
||---------------------------------|
||---5-------5--(5)------5-----(5)-|
||o--8-------8--(8)------8b9---(8)-|
||---------------------------------|
||o--------------------------------|
||---------------------------------|
||------0-0---------0-0------------|
|
|   Gtr II
|    ~~ PM|  ~~~~~~~PM|
|    Q  S S  E  +E  S S  E     +E
||--11------11-(11)-----11b14-(11)-|
||---------------------------------|
||o--------------------------------|
||---------------------------------|
||o--------------------------------|
||---------------------------------|
||------0-0---------0-0------------|


      PM|                              PM|         PM|
   Q  S S  E  +E  E    E      E     Q  S S  E  +E  S S  E     +E
|--------------------------------|---------------------------------|
|--5-------5--(5)-0-----------0--|--5-------5--(5)------5-----(5)--|
|--8-------8--(8)------5---------|--8-------8--(8)------8b9---(8)--|
|--------------------------------|---------------------------------|
|--------------------------------|---------------------------------|
|--------------------------------|---------------------------------|
|-----0-0------------------------|-----0-0---------0-0-------------|
|
|  ~~ PM|  ~~~~~~~PM|               ~~ PM|  ~~~~~~~PM|
|  Q  S S  E  +E  S S  E     +E     Q  S S  E  +E  S S  E     +E
|-11------11-(11)-----11b14-(11)-|-11------11-(11)-----11b14-(11)--|
|--------------------------------|---------------------------------|
|--------------------------------|---------------------------------|
|--------------------------------|---------------------------------|
|--------------------------------|---------------------------------|
|--------------------------------|---------------------------------|
|-----0-0---------0-0------------|-----0-0---------0-0-------------|


  1.,2.,3.
      PM|
   Q  S S  E  +E  S S  E      E   4x
|---------------------------------||
|--5-------5--(5)------0----------||
|--8-------8--(8)----------------o||
|-----------------7-7---------7---||
|--------------------------------o||
|---------------------------------||
|-----0-0-------------------------||
|
|  ~~ PM|  ~~~~~~~PM|
|  Q  S S  E  +E  S S  E     +E   4x
|-11------11-(11)-----11b14-(11)--||
|---------------------------------||
|--------------------------------o||
|---------------------------------||
|--------------------------------o||
|---------------------------------||
|-----0-0---------0-0-------------||


  4.
                      B7
      PM|         PM|
   Q  S S  E  +E  S S  Q        +W
|----------------------------|---------------*|
|--5-------5--(5)------0-----|--(0)----------*|
|--8-------8--(8)------------|---------------*|
|----------------------7-----|--(7)----------*|
|----------------------------|---------------*|
|----------------------------|---------------*|
|-----0-0---------0-0--------|---------------*|
|
|  ~~ PM|  ~~~~~~~PM|
|  Q  S S  E  +E  S S  Q        +Q   Q  H
|-11------11-(11)-----11b14--|-(11)----------*|
|----------------------------|---------------*|
|----------------------------|---------------*|
|----------------------------|---------------*|
|----------------------------|---------------*|
|----------------------------|---------------*|
|-----0-0---------0-0--------|---------------*|




--------------------------------------------------------------------------------


Duration Legend
---------------
W - whole; H - half; Q - quarter; E - 8th; S - 16th; T - 32nd; X - 64th; a - acciaccatura
+ - note tied to previous; . - note dotted; .. - note double dotted
Uncapitalized letters represent notes that are staccato (1/2 duration)
Irregular groupings are notated above the duration line
Duration letters will always appear directly above the note/fret number it represents the
duration for.  Duration letters with no fret number below them represent rests.  Multi-
bar rests are notated in the form Wxn, where n is the number of bars to rest for.  Low
melody durations appear below the staff

Tablature Legend
----------------
 h   - hammer-on
 p   - pull-off
 b   - bend
 pb  - pre-bend
 r   - bend release (if no number after the r, then release immediately)
 /\  - slide into or out of (from/to "nowhere")
 s   - legato slide
 S   - shift slide
 - natural harmonic
[n]  - artificial harmonic
n(n) - tapped harmonic
 ~   - vibrato
 tr  - trill
 T   - tap
 TP  - trem. picking
 PM  - palm muting
\n/  - tremolo bar dip; n = amount to dip
 \n  - tremolo bar down
 n/  - tremolo bar up
/n\  - tremolo bar inverted dip
 =   - hold bend; also acts as connecting device for hammers/pulls
 <> - volume swell (louder/softer)
 x   - on rhythm slash represents muted slash
 o   - on rhythm slash represents single note slash

Misc Legend
-----------
 |  - bar
||  - double bar
||o - repeat start
o|| - repeat end
*|  - double bar (ending)
 :  - bar (freetime)
 $  - Segno
 &  - Coda
Tempo markers -  = BPM(8/16=s8/s16), where s8 = swing 8ths, s16 = swing 16ths


Tap to rate this tab
# A B C D E F G H I J K L M N O P Q R S T U V W X Y Z