Song name
# A B C D E F G H I J K L M N O P Q R S T U V W X Y Z

Korn - Here It Comes Again tab

Gtr I (A D G C F A D) - 'Munky'
Gtr II (A D G C F A D) - 'Head'
Gtr III (A D G C F A D) - 'Munky'
Gtr IV (A D G C F A D) - 'Head'
Gtr V (A D G C F A D) - 'Head w/Whammy'


   Intro
    Q=107
    B       C  B A C  B              C  B A
   4/4
    Gtr I
          |-3--|                   |-3--|
    Q  Q  S  S S E  E E   +E  E Q  S  S S Q.    4x
||----------------------|-----------------------||
||----------------------|-----------------------||
||o---------------------|----------------------o||
||----------------------|-----------------------||
||o---------------------|----------------------o||
||-----7--7h=8p7p5--8-7-|-(7)---7--7--8-7-5-----||
||--0-------------------|-----0-----------------||
|
|   Gtr II
|         |-3--|                   |-3--|
|   Q  Q  S  S S E  E E   +E  E Q  S  S S Q.    4x
||----------------------|-----------------------||
||----------------------|-----------------------||
||o---------------------|----------------------o||
||-----9--9-10-9-7-10-9-|-(9)---9--9-10-9-7-----||
||o---------------------|----------------------o||
||--7-------------------|-----7-----------------||
||----------------------|-----------------------||


      B5      C5 B5A5C5 B5             C5 B5A5
      Gtr III
            |-3--|                   |-3--|
      Q  Q  S  S S E  E E   +E  E Q  S  S S Q.
|-||----------------------|-----------------------||
|-||----------------------|-----------------------||
|-||o---------------------|----------------------o||
|-||----------------------|-----------------------||
|-||o-2--9--9-10-9-7-10-2-|-(2)-2-9--9-10-9-7----o||
|-||--2--7--7--8-7-5--8-2-|-(2)-2-7--7--8-7-5-----||
|-||--0-----------------0-|-(0)-0-----------------||
|
|     Gtr IV
|           |-3--|                   |-3--|
|     Q  Q  S  S S E  E E   +E  E Q  S  S S Q.
|-||----------------------|-----------------------||
|-||----------------------|-----------------------||
|-||o---------------------|----------------------o||
|-||----------------------|-----------------------||
|-||o-2--9--9-10-9-7-10-2-|-(2)-2-9--9-10-9-7----o||
|-||--2--7--7--8-7-5--8-2-|-(2)-2-7--7--8-7-5-----||
|-||--0-----------------0-|-(0)-0-----------------||


  B5      C5 B5A5C5 B5           C5 B5A5
  Gtrs III, IV
        |-3--|                 |-3--|
  Q  Q  S  S S E  E E   E E Q  S  S S Q.
|---------------------|--------------------|
|---------------------|--------------------|
|---------------------|--------------------|
|---------------------|--------------------|
|-2--9--9-10-9-7-10-2-|---2-9--9-10-9-7----|
|-2--7--7--8-7-5--8-2-|---2-7--7--8-7-5----|
|-0-----------------0-|---0----------------|


  B5      C5 B5A5C5 B5             C5 B5A5
        |-3--|                   |-3--|
  Q  Q  S  S S E  E E   +E  E Q  S  S S Q.
|---------------------|-----------------------||
|---------------------|-----------------------||
|---------------------|-----------------------||
|---------------------|-----------------------||
|-2--9--9-10-9-7-10-2-|-(2)-2-9--9-10-9-7-----||
|-2--7--7--8-7-5--8-2-|-(2)-2-7--7--8-7-5-----||
|-0-----------------0-|-(0)-0-----------------||


   Verse
    $
    F5                A5      D5
    Gtrs III, IV
    S S S e. S S S e. S S E   S S S e. S S S e. S S E
||--------------------------|-------------------------|
||--------------------------|-------------------------|
||o-------------------------|-------------------------|
||--------------------7-7-7-|-------------------------|
||o-8-8-8-8--8-8-8-8--7-7-7-|-5-5-5-5--5-5-5-5--5-5-5-|
||--8-8-8-8--8-8-8-8--5-5-5-|-5-5-5-5--5-5-5-5--5-5-5-|
||--6-6-6-6--6-6-6-6--------|-3-3-3-3--3-3-3-3--3-3-3-|


  E5                G5         D5
  S S S e. S S S e.  S  S  E   S S S e. S S S e. S S E
|----------------------------|--------------------------||
|----------------------------|--------------------------||
|----------------------------|-------------------------o||
|----------------------------|--------------------------||
|-7-7-7-7--7-7-7-7--10-10-10-|-5-5-5-5--5-5-5-5--5-5-5-o||
|-7-7-7-7--7-7-7-7--10-10-10-|-5-5-5-5--5-5-5-5--5-5-5--||
|-5-5-5-5--5-5-5-5---8--8--8-|-3-3-3-3--3-3-3-3--3-3-3--||


  Pre-Chorus
   F5        A5            D5            E5       G5      D5
   Gtr IV
     H.         E   +E       W            H.        Q       W
||-----------------------|-------------|----------------|---------||
||-(10)------/(10)-(10)--|-(10)--------|-(9)------(12)--|-(10)----||
||---9---------/9---(9)\-|-------------|----------------|---------||
||-----------------------|---7---------|--6---------9---|---7-----||
||---8---------/7---(7)\-|-------------|----------------|---------||
||-----------------------|-------------|----------------|---------||
||-----------------------|-------------|----------------|---------||
|
|  Gtr III
|    H.         E   +E       W            H.        Q       W
||-----------------------|-------------|----------------|---------||
||-----------------------|-------------|----------------|---------||
||-----------------------|-------------|----------------|---------||
||-----------------------|-------------|----------------|---------||
||---8--------/12--(12)\-|---5---------|--7--------10---|---5-----||
||---8--------/12--(12)\-|---5---------|--7--------10---|---5-----||
||---6--------/10--(10)\-|---3---------|--5---------8---|---3-----||


 Chorus
  B5         C5 B5 A5 C5 B5                     C5B5 A5
  Gtr V
           |--3--|
   Q   Q   S  S  S  E  E  E    +E   E  Q   Q           Q
|-14--14--14-15-14-12-15-14-|-(14)-14-14--15----------12--|
|---------------------------|-----------------------------|
|---------------------------|-----------------------------|
|---------------------------|-----------------------------|
|---------------------------|-----------------------------|
|---------------------------|-----------------------------|
|---------------------------|-----------------------------|
|
|          |--3--|                         |-3--|
|  Q   Q   S  S  S  E  E  E    +E   E  Q   S  S S Q.
|---------------------------|-----------------------------|
|---------------------------|-----------------------------|
|---------------------------|-----------------------------|
|---------------------------|-----------------------------|
|--2---9---9-10--9--7-10--2-|--(2)--2--9---9-10-9-7-------|
|--2---7---7--8--7--5--8--2-|--(2)--2--7---7--8-7-5-------|
|--0----------------------0-|--(0)--0---------------------|


  B5         C5 B5 A5 C5 B5                     C5B5 A5
           |--3--|
   Q   Q   S  S  S  E  E  E    +E   E  Q   Q           Q
|-14--14--14-15-14-12-15-14-|-(14)-14-14--15----------12----|
|---------------------------|-------------------------------|
|---------------------------|-------------------------------|
|---------------------------|-------------------------------|
|---------------------------|-------------------------------|
|---------------------------|-------------------------------|
|---------------------------|-------------------------------|
|
|          |--3--|                         |-3--|
|  Q   Q   S  S  S  E  E  E    +E   E  Q   S  S S Q.
|---------------------------|-------------------------------|
|---------------------------|-------------------------------|
|---------------------------|-------------------------------|
|---------------------------|-------------------------------|
|--2---9---9-10--9--7-10--2-|--(2)--2--9---9-10-9-7---------|
|--2---7---7--8--7--5--8--2-|--(2)--2--7---7--8-7-5---------|
|--0----------------------0-|--(0)--0-----------------------|


  B5         C5 B5 A5 C5 B5               C5 B5A5
           |--3--|
   Q   Q   S  S  S  E  E  E   E  E  Q   Q          Q
|-14--14--14-15-14-12-15-14-|---14-14--15---------12--|
|---------------------------|-------------------------|
|---------------------------|-------------------------|
|---------------------------|-------------------------|
|---------------------------|-------------------------|
|---------------------------|-------------------------|
|---------------------------|-------------------------|
|
|          |--3--|                      |-3--|
|  Q   Q   S  S  S  E  E  E   E  E  Q   S  S S Q.
|---------------------------|-------------------------|
|---------------------------|-------------------------|
|---------------------------|-------------------------|
|---------------------------|-------------------------|
|--2---9---9-10--9--7-10--2-|----2--9---9-10-9-7------|
|--2---7---7--8--7--5--8--2-|----2--7---7--8-7-5------|
|--0----------------------0-|----0--------------------|


                                                 D.S.
  B5         C5 B5 A5 C5 B5                     C5B5 A5
           |--3--|
   Q   Q   S  S  S  E  E  E    +E   E  Q   Q           Q
|-14--14--14-15-14-12-15-14-|-(14)-14-14--15----------12--||
|---------------------------|-----------------------------||
|---------------------------|-----------------------------||
|---------------------------|-----------------------------||
|---------------------------|-----------------------------||
|---------------------------|-----------------------------||
|---------------------------|-----------------------------||
|
|          |--3--|                         |-3--|
|  Q   Q   S  S  S  E  E  E    +E   E  Q   S  S S Q.
|---------------------------|-----------------------------||
|---------------------------|-----------------------------||
|---------------------------|-----------------------------||
|---------------------------|-----------------------------||
|--2---9---9-10--9--7-10--2-|--(2)--2--9---9-10-9-7-------||
|--2---7---7--8--7--5--8--2-|--(2)--2--7---7--8-7-5-------||
|--0----------------------0-|--(0)--0---------------------||


 Interlude
  E5
  Gtr II
  S S S S S E. S S S S S S S S     S S S S S e. S S S S S S S S  3x
|------------------------------||--------------------------------||
|------------------------------||--------------------------------||
|------------------------------||o------------------------------o||
|------------------------------||--------------------------------||
|------------------------------||o------------------------------o||
|-0-0-0-0-1-0--0-0-0-0-1-1-1-1-||--0-0-0-0-1-0--0-0-0-0-1-1-1-1--||
|------------------------------||--------------------------------||
|
| >
| W                                W                             3x
|------------------------------||--------------------------------||
|------------------------------||--------------------------------||
|------------------------------||o------------------------------o||
|-2----------------------------||--------------------------------||
|-2----------------------------||o------------------------------o||
|-0----------------------------||--------------------------------||
|------------------------------||--------------------------------||


  Gtr III
   <                        <
   S  S  S  S  S  S   S  S  S  S  S  S  S  S  S  S
|--------------------------------------------------|
|-15-15-15-15-15-15--15-15-15-15-15-15-15-15-15-15-|
|--------------------------------------------------|
|--------------------------------------------------|
|--------------------------------------------------|
|--------------------------------------------------|
|--------------------------------------------------|
|
| Gtr II
|  S  S  S  S  S  e.        S  S  S  S  S  S  S  S
|--------------------------------------------------|
|--------------------------------------------------|
|--------------------------------------------------|
|--------------------------------------------------|
|--------------------------------------------------|
|--0--0--0--0--1--0---------0--0--0--0--1--1--1--1-|
|--------------------------------------------------|


   <                        <
   S  S  S  S  S  S   S  S  S  S  S  S  S  S  S  S
|--------------------------------------------------|
|-15-15-15-15-15-15--15-15-15-15-15-15-15-15-15-15-|
|--------------------------------------------------|
|--------------------------------------------------|
|--------------------------------------------------|
|--------------------------------------------------|
|--------------------------------------------------|
|
|  S  S  S  S  S  e.        S  S  S  S  S  S  S  S
|--------------------------------------------------|
|--------------------------------------------------|
|--------------------------------------------------|
|--------------------------------------------------|
|--------------------------------------------------|
|--0--0--0--0--1--0---------0--0--0--0--1--1--1--1-|
|--------------------------------------------------|


   <                           <
   S  S  S  S  S  S   S  S  S  S  S  S  S  S  S  S
|--------------------------------------------------|
|-15-15-15-15-15-15--15-15-15-15-15-15-15-15-15-15-|
|--------------------------------------------------|
|--------------------------------------------------|
|--------------------------------------------------|
|--------------------------------------------------|
|--------------------------------------------------|
|
|  S  S  S  S  S  e.        S  S  S  S  S  S  S  S
|--------------------------------------------------|
|--------------------------------------------------|
|--------------------------------------------------|
|--------------------------------------------------|
|--------------------------------------------------|
|--0--0--0--0--1--0---------0--0--0--0--1--1--1--1-|
|--------------------------------------------------|


   S  S  S  S  S  S   S  S  S  S  S  S  S  S  S  S
|--------------------------------------------------||
|-15-15-15-15-15-15--15-15-15-15-15-15-15-15-15-15-||
|--------------------------------------------------||
|--------------------------------------------------||
|--------------------------------------------------||
|--------------------------------------------------||
|--------------------------------------------------||
|
|  S  S  S  S  S  e.        S  S  S  S  S  S  S  S
|--------------------------------------------------||
|--------------------------------------------------||
|--------------------------------------------------||
|--------------------------------------------------||
|--------------------------------------------------||
|--0--0--0--0--1--0---------0--0--0--0--1--1--1--1-||
|--------------------------------------------------||


   Bridge
    E5      F5E5         F5E5   E5      F5E5         F
    Gtr IV
    S S S S S E. S S S S S E.   S S S S S E. S S S S  S  S  S  S
||----------------------------|-----------------------------------|
||----------------------------|-----------------------------------|
||o---------------------------|----------------------10-10-10-10--|
||----------------------------|-----------------------------------|
||o---------------------------|-----------------------8--8--8--8--|
||--7-7-7-7-8-7--7-7-7-7-8-7--|-7-7-7-7-8-7--7-7-7-7--------------|
||--5-5-5-5-6-5--5-5-5-5-6-5--|-5-5-5-5-6-5--5-5-5-5--------------|
|
|   Gtr III
|   S S S S S E. S S S S S E.   S S S S S E. S S S S  S  S  S  S
||----------------------------|-----------------------------------|
||----------------------------|-----------------------------------|
||o---------------------------|-----------------------------------|
||----------------------------|-----------------------------------|
||o---------------------------|-----------------------------------|
||--7-7-7-7-8-7--7-7-7-7-8-7--|-7-7-7-7-8-7--7-7-7-7--8--8--8--8--|
||--5-5-5-5-6-5--5-5-5-5-6-5--|-5-5-5-5-6-5--5-5-5-5--6--6--6--6--|


  E5      F5E5         F5E5           F5E5
  S S S S S E. S S S S S E.   S S S S S E. S S S S Q   4x
|---------------------------|--------------------------||
|---------------------------|--------------------------||
|---------------------------|-------------------------o||
|---------------------------|--------------------------||
|---------------------------|-------------------------o||
|-7-7-7-7-8-7--7-7-7-7-8-7--|-7-7-7-7-8-7--7-7-7-7-5---||
|-5-5-5-5-6-5--5-5-5-5-6-5--|-5-5-5-5-6-5--5-5-5-5-3---||
|
| S S S S S E. S S S S S E.   S S S S S E. S S S S Q   4x
|---------------------------|--------------------------||
|---------------------------|--------------------------||
|---------------------------|-------------------------o||
|---------------------------|--------------------------||
|---------------------------|-------------------------o||
|-7-7-7-7-8-7--7-7-7-7-8-7--|-7-7-7-7-8-7--7-7-7-7-5---||
|-5-5-5-5-6-5--5-5-5-5-6-5--|-5-5-5-5-6-5--5-5-5-5-3---||


  Pre-Chorus
   F5        A5            D5            E5       G5      D5
     H.         E   +E       W            H.        Q       W
||-----------------------|-------------|----------------|---------||
||-(10)------/(10)-(10)--|-(10)--------|-(9)------(12)--|-(10)----||
||---9---------/9---(9)\-|-------------|----------------|---------||
||-----------------------|---7---------|--6---------9---|---7-----||
||---8---------/7---(7)\-|-------------|----------------|---------||
||-----------------------|-------------|----------------|---------||
||-----------------------|-------------|----------------|---------||
|
|    H.         E   +E       W            H.        Q       W
||-----------------------|-------------|----------------|---------||
||-----------------------|-------------|----------------|---------||
||-----------------------|-------------|----------------|---------||
||-----------------------|-------------|----------------|---------||
||---8--------/12--(12)\-|---5---------|--7--------10---|---5-----||
||---8--------/12--(12)\-|---5---------|--7--------10---|---5-----||
||---6--------/10--(10)\-|---3---------|--5---------8---|---3-----||


   Out-Chorus
    B5         C5 B5 A5 C5 B5                     C5B5 A5
    Gtr V
             |--3--|
     Q   Q   S  S  S  E  E  E    +E   E  Q   Q           Q   3x
||--14--14--14-15-14-12-15-14-|-(14)-14-14--15----------12---||
||----------------------------|------------------------------||
||o---------------------------|-----------------------------o||
||----------------------------|------------------------------||
||o---------------------------|-----------------------------o||
||----------------------------|------------------------------||
||----------------------------|------------------------------||
|
|            |--3--|                         |-3--|
|    Q   Q   S  S  S  E  E  E    +E   E  Q   S  S S Q.       3x
||----------------------------|------------------------------||
||----------------------------|------------------------------||
||o---------------------------|-----------------------------o||
||----------------------------|------------------------------||
||o--2---9---9-10--9--7-10--2-|--(2)--2--9---9-10-9-7-------o||
||---2---7---7--8--7--5--8--2-|--(2)--2--7---7--8-7-5--------||
||---0----------------------0-|--(0)--0----------------------||


  B5         C5 B5 A5 C5 B5                  C5 B5A5      A+sus2/F
           |--3--|
   Q   Q   S  S  S  E  E  E    +E   E  Q   Q         Q     W
|-14--14--14-15-14-12-15-14-|-(14)-14-14--15--------12--|--------*|
|---------------------------|---------------------------|--------*|
|---------------------------|---------------------------|--------*|
|---------------------------|---------------------------|--------*|
|---------------------------|---------------------------|--------*|
|---------------------------|---------------------------|--------*|
|---------------------------|---------------------------|--------*|
|
|          |--3--|                         |-3--|
|  Q   Q   S  S  S  E  E  E    +E   E  Q   S  S S E  Q    +W
|---------------------------|---------------------------|--------*|
|---------------------------|---------------------------|--------*|
|---------------------------|---------------------------|--------*|
|---------------------------|------------------------7--|-(7)----*|
|--2---9---9-10--9--7-10--2-|--(2)--2--9---9-10-9-7--8--|-(8)----*|
|--2---7---7h=8p=7p=5--8--2-|--(2)--2--7---7--8-7-5--7--|-(7)----*|
|--0----------------------0-|--(0)--0----------------6--|-(6)----*|




--------------------------------------------------------------------------------


Duration Legend
---------------
W - whole; H - half; Q - quarter; E - 8th; S - 16th; T - 32nd; X - 64th; a - acciaccatura
+ - note tied to previous; . - note dotted; .. - note double dotted
Uncapitalized letters represent notes that are staccato (1/2 duration)
Irregular groupings are notated above the duration line
Duration letters will always appear directly above the note/fret number it represents the
duration for.  Duration letters with no fret number below them represent rests.  Multi-
bar rests are notated in the form Wxn, where n is the number of bars to rest for.  Low
melody durations appear below the staff

Tablature Legend
----------------
 h   - hammer-on
 p   - pull-off
 b   - bend
 pb  - pre-bend
 r   - bend release (if no number after the r, then release immediately)
 /\  - slide into or out of (from/to "nowhere")
 s   - legato slide
 S   - shift slide
 - natural harmonic
[n]  - artificial harmonic
n(n) - tapped harmonic
 ~   - vibrato
 tr  - trill
 T   - tap
 TP  - trem. picking
 PM  - palm muting
\n/  - tremolo bar dip; n = amount to dip
 \n  - tremolo bar down
 n/  - tremolo bar up
/n\  - tremolo bar inverted dip
 =   - hold bend; also acts as connecting device for hammers/pulls
 <> - volume swell (louder/softer)
 x   - on rhythm slash represents muted slash
 o   - on rhythm slash represents single note slash

Misc Legend
-----------
 |  - bar
||  - double bar
||o - repeat start
o|| - repeat end
*|  - double bar (ending)
 :  - bar (freetime)
 $  - Segno
 &  - Coda
Tempo markers -  = BPM(8/16=s8/s16), where s8 = swing 8ths, s16 = swing 16ths


Tap to rate this tab
 
# A B C D E F G H I J K L M N O P Q R S T U V W X Y Z