Song name
# A B C D E F G H I J K L M N O P Q R S T U V W X Y Z

Korn - Embrace tab

Gtr I (A D G C F A D) - 'Munky (Right)'
Gtr II (A D G C F A D) - 'Head (Left)'


   Intro
    Moderately Q=100
    N.C.
   4/4
    Gtr I
    E E S   +E. E E S   +E.   E E S   +E. E E S   +E.  4x
||--------------------------|--------------------------||
||--------------------------|--------------------------||
||o-----4b6-(4)-----5b7-(5)-|-----4b6-(4)-----5b7-(5)-o||
||--------------------------|--------------------------||
||o---4-----------5---------|---4-----------5---------o||
||--------------------------|--------------------------||
||--3-----------3-----------|-3-----------3------------||


    B5                                                    N.C.
    Gtrs I, II
    S S S S S E. S S S S Q    S S S S S E. S S S S Q   4x W
||--------------------------|--------------------------||------|
||--------------------------|--------------------------||------|
||o-------------------------|-------------------------o||------|
||--------------------------|--------------------------||------|
||o-------------------------|-------------------------o||------|
||----------2-2----------2--|---------2-2----------2---||------|
||--1-0---0-0-0--1-0---0-0--|-1-0---0-0-0--1-0---0-0---||------|


   Verse
    $
    B5
    S S S S S S E S S S S S E.   S S S S S S E S S S S S E.  4x
||-----------------------------|-----------------------------||
||-----------------------------|-----------------------------||
||o----------------------------|----------------------------o||
||-----------------------------|-----------------------------||
||o----------------------------|----------------------------o||
||----------2-2-----------2----|---------2-2-----------2-----||
||--1-0---0-0-0---1-0---0-0----|-1-0---0-0-0---1-0---0-0-----||


   Pre-Chorus
    D5
    Gtr I
        |-3--|    |-3--|             |-3--|    |-3--|
     Q  E   +S  E E   +S  E E E   Q  E   +S  E E   +S  E E E
||------------------------------|----------------------------|
||------------------------------|----------------------------|
||o-----------------------------|----------------------------|
||------------------------------|----------------------------|
||o-------------------------5S9-|------------------------8S6-|
||------5b6r(5)---5b6r(5)-------|----5b6r(5)---5b6r(5)-------|
||---3----------3---------3-3S7-|-3----------3---------3-6S4-|
|
|   Gtr II
|    W                            W
||------------------------------|----------------------------|
||--10--------------------------|-9--------------------------|
||o-----------------------------|----------------------------|
||------------------------------|----------------------------|
||o-----------------------------|----------------------------|
||------------------------------|----------------------------|
||------------------------------|----------------------------|


                               1.
      |-3--|    |-3--|               |-3--|    |-3--|
   Q  E   +S  E E   +S  E E E   Q    E   +S  E E   +S  E E E
|-----------------------------|-------------------------------||
|-----------------------------|-------------------------------||
|-----------------------------|------------------------------o||
|-----------------------------|-------------------------------||
|-------------------------5S9-|----------------------------6-o||
|-----5b6r(5)---5b6r(5)-------|------5b6r(5)---5b6r(5)---5----||
|--3----------3---------3-3S7-|-3------------3---------4------||
|
|  W                            H..                        E
|-----------------------------|-------------------------------||
|-10--------------------------|-9-----------------------------||
|-----------------------------|------------------------------o||
|-----------------------------|-------------------------------||
|-----------------------------|------------------------------o||
|-----------------------------|-------------------------------||
|-----------------------------|-------------------------------||


 2.
     |-3--|     |-3--|
  Q  E   +S  E  E   +S   E  E E
|-------------------------------|
|-------------------------------|
|-------------------------------|
|-------------------------------|
|-----------------------------6-|
|----5b6r(5)----5b6r(5)-----5---|
|-3----------3-----------4------|
|
| H            +E        E  Q
|-----------------------10-10---|
|-9------------(9)--------------|
|-------------------------------|
|-------------------------------|
|-------------------------------|
|-------------------------------|
|-------------------------------|


   Chorus
                                                                 D.S.
    C5   B5   Bb5      A5BbA5 F5 E5   C5   B5   Bb5      A5BbA5 F5 E5
    Q.   Q.   Q    +E  S S Q  Q  Q    Q.   Q.   Q    +E  S S Q  Q  Q
||---------------|------------------|--------------|--------------------||
||---------------|------------------|--------------|--------------------||
||o--------------|------------------|--------------|-------------------o||
||---------------|------------------|--------------|--------------------||
||o-----------8--|-(8)-7S8S7--------|-----------8--|-(8)-7S8S7---------o||
||--3----2----6--|-(6)-5S6S5--8--7--|-3----2----6--|-(6)-5S6S5--8--7----||
||--1----0-------|------------6--5--|-1----0-------|------------6--5----||
|
|   Q.   Q.   Q    +E  S S Q  Q  Q    Q.   Q.   Q    +E  S S Q  Q  Q
||---------------|------------------|--------------|--------------------||
||---------------|------------------|--------------|--------------------||
||o-5----4----3--|-(3)-2S3S2--3--4--|-5----4----3--|-(3)-2S3S2--3--4---o||
||---------------|------------------|--------------|--------------------||
||o--------------|------------------|--------------|-------------------o||
||---------------|------------------|--------------|--------------------||
||---------------|------------------|--------------|--------------------||


   Bridge
    N.C.
    Gtr I
    E E S   +E. E E S   +E.   E E S   +E. E E S   +E. 10x
||--------------------------|--------------------------||
||--------------------------|--------------------------||
||o-----4b6-(4)-----5b7-(5)-|-----4b6-(4)-----5b7-(5)-o||
||--------------------------|--------------------------||
||o---4-----------5---------|---4-----------5---------o||
||--------------------------|--------------------------||
||--3-----------3-----------|-3-----------3------------||


    Gtrs I, II
    E E S E. E E Q    E E S E. E E Q    E E S E. E E Q    E E S E. E E Q
||------------------|-----------------|-----------------|-------------------||
||------------------|-----------------|-----------------|-------------------||
||o-----6-6------7--|-----6-6------7--|-----6-6------7--|-----6-6------7---o||
||------------------|-----------------|-----------------|-------------------||
||o-----4-4------5--|-----4-4------5--|-----4-4------5--|-----4-4------5---o||
||------------------|-----------------|-----------------|-------------------||
||--3-3------3-3----|-3-3------3-3----|-3-3------3-3----|-3-3------3-3------||


   Chorus
    C5   B5   Bb5      A5BbA5 F5 E5   C5   B5   Bb5      A5BbA5 F5 E5
    Gtr I
    Q.   Q.   Q    +E  S S Q  Q  Q    Q.   Q.   Q    +E  S S Q  Q  Q    4x
||---------------|------------------|--------------|--------------------||
||---------------|------------------|--------------|--------------------||
||o--------------|------------------|--------------|-------------------o||
||---------------|------------------|--------------|--------------------||
||o-----------8--|-(8)-7S8S7--------|-----------8--|-(8)-7S8S7---------o||
||--3----2----6--|-(6)-5S6S5--8--7--|-3----2----6--|-(6)-5S6S5--8--7----||
||--1----0-------|------------6--5--|-1----0-------|------------6--5----||
|
|   Gtr II
|   Q.   Q.   Q    +E  S S Q  Q  Q    Q.   Q.   Q    +E  S S Q  Q  Q    4x
||---------------|------------------|--------------|--------------------||
||---------------|------------------|--------------|--------------------||
||o-5----4----3--|-(3)-2S3S2--3--4--|-5----4----3--|-(3)-2S3S2--3--4---o||
||---------------|------------------|--------------|--------------------||
||o--------------|------------------|--------------|-------------------o||
||---------------|------------------|--------------|--------------------||
||---------------|------------------|--------------|--------------------||


   Outro
                             1.,2.,3.
    B5
    Gtrs I, II
    S S S S S E. S S S S Q    S S S S S E. S S S S Q   4x
||--------------------------|--------------------------||
||--------------------------|--------------------------||
||o-------------------------|-------------------------o||
||--------------------------|--------------------------||
||o-------------------------|-------------------------o||
||----------2-2----------2--|---------2-2----------2---||
||--1-0---0-0-0--1-0---0-0--|-1-0---0-0-0--1-0---0-0---||


 4.
  S S S S S E. S S S S S S E
|-----------------------------*|
|-----------------------------*|
|-----------------------------*|
|-----------------------------*|
|-----------------------------*|
|---------2-2----------2-2----*|
|-1-0---0-0-0--1-0---0-0-0----*|




--------------------------------------------------------------------------------


Duration Legend
---------------
W - whole; H - half; Q - quarter; E - 8th; S - 16th; T - 32nd; X - 64th; a - acciaccatura
+ - note tied to previous; . - note dotted; .. - note double dotted
Uncapitalized letters represent notes that are staccato (1/2 duration)
Irregular groupings are notated above the duration line
Duration letters will always appear directly above the note/fret number it represents the
duration for.  Duration letters with no fret number below them represent rests.  Multi-
bar rests are notated in the form Wxn, where n is the number of bars to rest for.  Low
melody durations appear below the staff

Tablature Legend
----------------
 h   - hammer-on
 p   - pull-off
 b   - bend
 pb  - pre-bend
 r   - bend release (if no number after the r, then release immediately)
 /\  - slide into or out of (from/to "nowhere")
 s   - legato slide
 S   - shift slide
 - natural harmonic
[n]  - artificial harmonic
n(n) - tapped harmonic
 ~   - vibrato
 tr  - trill
 T   - tap
 TP  - trem. picking
 PM  - palm muting
\n/  - tremolo bar dip; n = amount to dip
 \n  - tremolo bar down
 n/  - tremolo bar up
/n\  - tremolo bar inverted dip
 =   - hold bend; also acts as connecting device for hammers/pulls
 <> - volume swell (louder/softer)
 x   - on rhythm slash represents muted slash
 o   - on rhythm slash represents single note slash

Misc Legend
-----------
 |  - bar
||  - double bar
||o - repeat start
o|| - repeat end
*|  - double bar (ending)
 :  - bar (freetime)
 $  - Segno
 &  - Coda
Tempo markers -  = BPM(8/16=s8/s16), where s8 = swing 8ths, s16 = swing 16ths


Tap to rate this tab
# A B C D E F G H I J K L M N O P Q R S T U V W X Y Z