Guitaretab - guitar tabs
Song name
# A B C D E F G H I J K L M N O P Q R S T U V W X Y Z
Home / K / Korn / Liar tab

Korn - Liar tab

KoRn - Liar - See You On The Other Side

Tabbed by Elvisz (elvisz@kornkids.com)
                 (elvisz84@yahoo.com)

Tuning : 7 String Tuned Low to High (A D G C F a d)

Vocal: Jonathan Houseman Davis 'Hiv'
Guitar: James Randal Shaffer 'Munky'
Bass: Reginald Arvizu 'Fieldy'
Drums: David Silveria

Intro:
d|--------------------------|------------------------|
a|--------------------------|------------------------|
F|--------------------------|------------------------|
C|--------------------------|------------------------|
G|--------------------------|------------------------|
D|-55-55-55-55-55-55--------|-55-55-55-55-55-55------|
A|-33-33-33-33-33-33-336-56-|-33-33-33-33-33-33-336--|

d|----------------------------------------|----------------------------------------|
a|-15151515141414141515151717171718181717-|-151515----141414--1515--1717-1818-1717-|
F|----------------------------------------|----------------------------------------|
C|----------------------------------------|----------------------------------------|
G|----------------------------------------|----------------------------------------|
D|----------------------------------------|----------------------------------------|
A|----------------------------------------|----------------------------------------|

Verse:
d|--------------------------|----------------------------|
a|--------------------------|----------------------------|
F|--------------------------|----------------------------|
C|--------------------------|----------------------------|
G|--------------------------|----------------------------|
D|--------------------------|-55-5x-55-5x-55-5x----------|
A|-33-33-33-33-33-33-336-56-|-33-3x-33-3x-33-3x----3-6-5-|
   .. .. .. .. .. ..          ..    ..    ..               .palm mute

Pre-Chorus:
d|---------------------------------------------|
a|-5~~3~~2~~~~~~~2~3~5~3~2-5~~3~~2~~~~~~~2~3~5-|
F|-2~~2~~2~~~~~~~2~2~2~2~2-2~~2~~2~~~~~~~2~2~2-|
C|---------------------------------------------|
G|---------------------------------------------|
D|---------------------------------------------|
A|---------------------------------------------|

Chorus:
d|----------------------|--------------------|
a|----------------------|--------------------|
F|----------------------|--------------------|
C|----------------------|--------------------|
G|----------------------|--------------------|
D|-5\\3-5\\3-5\\3-8\7\5-|-5\\3-5\\3-5\\3-8\7-|
A|-3\\1-3\\1-3\\1-6\5\3-|-3\\1-3\\1-3\\1-6\5-|

Pre-Verse:
d|--------------------------|
a|--------------------------|
F|--------------------------|
C|--------------------------|
G|--------------------------|
D|-55-55-55-55-55-55--------|
A|-33-33-33-33-33-33-336-56-|

Verse:
d|--------------------------|----------------------------|
a|--------------------------|----------------------------|
F|--------------------------|----------------------------|
C|--------------------------|----------------------------|
G|--------------------------|----------------------------|
D|--------------------------|-55-5x-55-5x-55-5x----------|
A|-33-33-33-33-33-33-336-56-|-33-3x-33-3x-33-3x----3-6-5-|
   .. .. .. .. .. ..          ..    ..    ..               .palm mute
[ Tab from: http://www.guitaretab.com/k/korn/140098.html ]
Pre-Chorus:
d|---------------------------------------------|
a|-5~~3~~2~~~~~~~2~3~5~3~2-5~~3~~2~~~~~~~2~3~5-|
F|-2~~2~~2~~~~~~~2~2~2~2~2-2~~2~~2~~~~~~~2~2~2-|
C|---------------------------------------------|
G|---------------------------------------------|
D|---------------------------------------------|
A|---------------------------------------------|

Chorus:
d|----------------------|--------------------|
a|----------------------|--------------------|
F|----------------------|--------------------|
C|----------------------|--------------------|
G|----------------------|--------------------|
D|-5\\3-5\\3-5\\3-8\7\5-|-5\\3-5\\3-5\\3-8\7-|
A|-3\\1-3\\1-3\\1-6\5\3-|-3\\1-3\\1-3\\1-6\5-|

Bridge1:
d|----------------------------------|
a|----------------------------------|
F|----------------------------------|
C|----------------------------------|
G|----------------------------------|
D|----------------------------------|
A|-333-333-333-333-665-665-665-6\\3-|

Bridge2:
d|-----------------------------------------|
a|-5~~3~~2~~2~222~3~5~3~2-5~~3~~2~22~2~3~5-|
F|-2~~2~~2~~2~222~2~2~2~2-2~~2~~2~22~2~2~2-|
C|-----------------------------------------|
G|-----------------------------------------|
D|-----------------------------------------|
A|-----------------------------------------|

Chorus:
d|----------------------|--------------------|
a|----------------------|--------------------|
F|----------------------|--------------------|
C|----------------------|--------------------|
G|----------------------|--------------------|
D|-5\\3-5\\3-5\\3-8\7\5-|-5\\3-5\\3-5\\3-8\7-|
A|-3\\1-3\\1-3\\1-6\5\3-|-3\\1-3\\1-3\\1-6\5-|

Bridge3:
d|----------------------------------|
a|----------------------------------|
F|----------------------------------|
C|----------------------------------|
G|----------------------------------|
D|----------------------------------|
A|-333-333-333-333-665-665-665-6\\3-|

d|----------------------------------------|
a|-15151515141414141515151717171718181717-|
F|----------------------------------------|
C|----------------------------------------|
G|----------------------------------------|
D|----------------------------------------|
A|----------------------------------------|

Outro:
d|--------------------------|
a|--------------------------|
F|--------------------------|
C|--------------------------|
G|--------------------------|
D|-55-55-55-55-55-55--------|
A|-33-33-33-33-33-33-336-56-|

d|---0---0---0---0---0---0---0---0-|
a|---3---3---3---3---2---2---2---2-|   (let the last note ring out)
F|-2---2---2---2---2---2---2---2---|
C|---------------------------------|  
G|---------------------------------|
D|---------------------------------|
A|---------------------------------|

d|----------------------------------------------------|
a|-55~~33~222~-555-5~33~222-555-5~33~22222~5~-3~-2~-2-|
F|-22~~22~222~-222-2~22~222-222-2~22~22222~2~-2~-2~---|
C|----------------------------------------------------|
G|----------------------------------------------------|
D|----------------------------------------------------|
A|----------------------------------------------------|

Fill:
d|----|
a|----|
F|----|
C|-10~|	(with wah-wah)
G|-10~|
D|- 8~|
A|----|
Related for Liar tab
Advertisement will be closed in 10 seconds