Song name
# A B C D E F G H I J K L M N O P Q R S T U V W X Y Z

Korn - Tearjerker tab

KoRn - Tearjerker - See You On The Other Side

Tabbed by Elvisz (elvisz@kornkids.com)
                 (elvisz84@yahoo.com)

Tuning : 7 String Tuned Low to High (A D G C F a d)

Vocal: Jonathan Houseman Davis 'Hiv'
Guitar: James Randal Shaffer 'Munky'
Bass: Reginald Arvizu 'Fieldy'
Drums: David Silveria

This song has lots of weird effects, but i only gonna tab the guitar...
d|------------------------------------|------------------------------------|
a|------10~~~-------------------------|------10~~~~------------------------|
F|-9~~~- 9~~~-6~/7~~~-6~/7~~~-6~/7~~~-|-9~~~- 9~~~-6~/7~~~-6~/7~~~-5~/11~~-|
C|-9~~~- 7~~~-6~/7~~~-6~/7~~~-6~/7~~~-|-9~~~- 7~~~-6~/7~~~-6~/7~~~-5~/11~~-|
G|-7~~~-------4~/5~~~-4~/5~~~-4~/5~~~-|-7~~~-------4~/5~~~-4~/5~~~-7~/ 9~~~|
D|------------------------------------|------------------------------------|
A|------------------------------------|------------------------------------|

d|------------------------------------------|
a|-19~~~-/22~~--17~~~~-19~~~-15~~~-17~~-19~~|
F|------------------------------------------|
C|------------------------------------------|
G|------------------------------------------|
D|------------------------------------------|
A|------------------------------------------|

Outro:
d|--------------------------|
a|-3-----5-----5~~~~--5-----|
F|---4-----4------------4---|
C|-----4-----4------------4-|
G|--------------------------|
D|--------------------------|
A|--------------------------|
Tap to rate this tab
 
# A B C D E F G H I J K L M N O P Q R S T U V W X Y Z