Song name
# A B C D E F G H I J K L M N O P Q R S T U V W X Y Z

Korn - Love Song tab

KoRn - Love Song - See You On The Other Side

Tabbed by Elvisz (elvisz@kornkids.com)
                 (elvisz84@yahoo.com)

Tuning : 7 String Tuned Low to High (A D G C F a d)

Vocal: Jonathan Houseman Davis 'Hiv'
Guitar: James Randal Shaffer 'Munky'
Bass: Reginald Arvizu 'Fieldy'
Drums: David Silveria

Intro:
d|----------------------------------|
a|----------------------------------|
F|----------------------------------|
C|----------------------------------|
G|---9----9----9----9----9----9-----|
D|---7----7----7----7----7----7--7x-|
A|-0----0----0----0----0----0----0x-|
   .    .    .    .    .    .    .   .palm mute

in the background some scratching noise with pick (A), like:
d|---|---|
a|---|---|
F|---|---|
C|---|-9-|
G|-2-|-9-|
D|-2-|-7-|
A|-0-|---|

Pre-Chorus:
d|----------------------------|
a|----------------------------|
F|----------------------------|
C|---9------9----10-10----7-7-|
G|---x------x----xx-xx----x-x-|
D|---7------7---- 8- 8----5-5-|
A|-0---00-0---00-------00-----|
   .   .. .   ..       ..      .palm mute
 
d|---------------------------|
a|---------------------------|
F|---------------------------|
C|---9999999----10-10----7-7-|
G|---xxxxxxx----xx-xx----x-x-|
D|---7777777---- 8- 8----5-5-|
A|-0---------00-------00-----|
   .         ..       ..      .palm mute

d|----------------------------|
a|----------------------------|
F|----------------------------|
C|---9------9----10-10----7-7-|
G|---x------x----xx-xx----x-x-|
D|---7------7---- 8- 8----5-5-|
A|-0---00-0---00-------00-----|
   .   .. .   ..       ..      .palm mute
 
d|-----------------------|
a|-----------------------|
F|-----------------------|
C|---9999999----10-10----|
G|---xxxxxxx----xx-xx----|
D|---7777777---- 8- 8----|
A|-0---------00-------00-|
   .         ..       ..  .palm mute

Chorus:
d|----------------------------|
a|----------------------------|
F|----------------------------|
C|----------------------------|
G|----------------------------|
D|----------------------------|
A|-2-3-4-3-2-3-2-1-1-2-3-2-1x-|

Verse:
d|----------------------------------|
a|----------------------------------|
F|----------------------------------|
C|----------------------------------|
G|---9----9----9----9----9----9-----|
D|---7----7----7----7----7----7--7x-|
A|-0----0----0----0----0----0----0x-|
   .    .    .    .    .    .    .   .palm mute

Pre-Chorus:
d|----------------------------|
a|----------------------------|
F|----------------------------|
C|---9------9----10-10----7-7-|
G|---x------x----xx-xx----x-x-|
D|---7------7---- 8- 8----5-5-|
A|-0---00-0---00-------00-----|
   .   .. .   ..       ..      .palm mute
 
d|---------------------------|
a|---------------------------|
F|---------------------------|
C|---9999999----10-10----7-7-|
G|---xxxxxxx----xx-xx----x-x-|
D|---7777777---- 8- 8----5-5-|
A|-0---------00-------00-----|
   .         ..       ..      .palm mute

d|----------------------------|
a|----------------------------|
F|----------------------------|
C|---9------9----10-10----7-7-|
G|---x------x----xx-xx----x-x-|
D|---7------7---- 8- 8----5-5-|
A|-0---00-0---00-------00-----|
   .   .. .   ..       ..      .palm mute
 
d|-----------------------|
a|-----------------------|
F|-----------------------|
C|---9999999----10-10----|
G|---xxxxxxx----xx-xx----|
D|---7777777---- 8- 8----|
A|-0---------00-------00-|
   .         ..       ..  .palm mute

Fill1:
d|------|
a|------|
F|------|
C|------|
G|------|
D|------|
A|-3332-|
   ....   .palm mute

Chorus:
d|----------------------------|
a|----------------------------|
F|----------------------------|
C|----------------------------|
G|----------------------------|
D|----------------------------|
A|-2-3-4-3-2-3-2-1-1-2-3-2-1x-|

Bridge1:
d|---------------------------------------------------------|
a|---------------------------------------------------------|
F|---------------------------------------------------------|
C|----5----5---5----7----7---7----6----6---6----4----4---4-|
G|----x----x---x----x----x---x----x----x---x----x----x---x-|
D|----3----3---3----5----5---5----4----4---4----2----2---2-|
A|-00---00---0---00---00---0---00---00---0---00---00---0---|


Bridge2:
d|-------------|-------------|------------------------|
a|-------------|-------------|------------------------|
F|-------------|-------------|------------------------|
C|-------------|-------------|------------------------|
G|-5---------5-|-5---------5-|-5------------5---------|
D|-------------|-------------|------------------------|
A|---3-2-1-2---|---3-2-1-2---|---3-2-1-2-31---2-1-2-3-|

Chorus:
d|----------------------------|
a|----------------------------|
F|----------------------------|
C|----------------------------|
G|----------------------------|
D|----------------------------|
A|-2-3-4-3-2-3-2-1-1-2-3-2-1x-|
Tap to rate this tab
# A B C D E F G H I J K L M N O P Q R S T U V W X Y Z