Song name
# A B C D E F G H I J K L M N O P Q R S T U V W X Y Z

Korn - Open Up tab

KoRn - Open Up - See You On The Other Side

Tabbed by Elvisz (elvisz@kornkids.com)
                 (elvisz84@yahoo.com)

Tuning : 7 String Tuned Low to High (A D G C F a d)

Vocal: Jonathan Houseman Davis 'Hiv'
Guitar: James Randal Shaffer 'Munky'
Bass: Reginald Arvizu 'Fieldy'
Drums: David Silveria

Verse:
d|-------------------|
a|-------------------|
F|-6~~7~~3~~4~~////9-|
C|-x~~x~~x~~x~~////X-|
G|-4~~5~~1~~2~~////7-|
D|-------------------|
A|-------------------|

Chorus:
d|--------------------------------------|
a|--------------------------------------|
F|--------------------------------------|
C|-----7~~~----5~~~7~~~6~~~10~~~9~~~/12-|
G|-4~~~7~~~2~~~5~~~7~~~6~~~10~~~9~~~/12-|
D|-4~~~5~~~2~~~3~~~5~~~4~~~ 8~~~7~~~/10-|
A|-2~~~----0~~~-------------------------|

d|--------------------------------------|
a|--------------------------------------|
F|--------------------------------------|
C|-----7~~~----5~~~4~~~6~~~7~~~9~~~-/12-|
G|-4~~~7~~~2~~~5~~~4~~~6~~~7~~~9~~~-/12-|
D|-4~~~5~~~2~~~3~~~2~~~4~~~5~~~7~~~-/10-|
A|-2~~~----0~~~-------------------------|

Verse:
d|-------------------|
a|-------------------|
F|-6~~7~~3~~4~~////9-|
C|-x~~x~~x~~x~~////X-|
G|-4~~5~~1~~2~~////7-|
D|-------------------|
A|-------------------|

Chorus:
d|--------------------------------------|
a|--------------------------------------|
F|--------------------------------------|
C|-----7~~~----5~~~7~~~6~~~10~~~9~~~/12-|
G|-4~~~7~~~2~~~5~~~7~~~6~~~10~~~9~~~/12-|
D|-4~~~5~~~2~~~3~~~5~~~4~~~ 8~~~7~~~/10-|
A|-2~~~----0~~~-------------------------|

d|--------------------------------------|
a|--------------------------------------|
F|--------------------------------------|
C|-----7~~~----5~~~4~~~6~~~7~~~9~~~-/12-|
G|-4~~~7~~~2~~~5~~~4~~~6~~~7~~~9~~~-/12-|
D|-4~~~5~~~2~~~3~~~2~~~4~~~5~~~7~~~-/10-|
A|-2~~~----0~~~-------------------------|

Bridge1:
d|-------------------|
a|-------------------|
F|-6~~~~~3~~4~~////9-|
C|-x~~~~~x~~x~~////X-|
G|-4~~~~~1~~2~~////7-|
D|-------------------|
A|-------------------|

Bridge2:
d|--------------------|
a|--------------------|
F|--------------------|
C|-----7~~~----5~~~9~-|
G|-4~~~7~~~2~~~5~~~9~-|
D|-4~~~5~~~2~~~3~~~7~-|
A|-2~~~----0~~~-------|

Chorus:
d|--------------------------------------|
a|--------------------------------------|
F|--------------------------------------|
C|-----7~~~----5~~~4~~~6~~~7~~~9~~~-/12-|
G|-4~~~7~~~2~~~5~~~4~~~6~~~7~~~9~~~-/12-|
D|-4~~~5~~~2~~~3~~~2~~~4~~~5~~~7~~~-/10-|
A|-2~~~----0~~~-------------------------|

Outro:
d|----|
a|----|
F|-6~~|
C|----|
G|----|
D|----|
A|----|
Tap to rate this tab
 
# A B C D E F G H I J K L M N O P Q R S T U V W X Y Z