Song name
# A B C D E F G H I J K L M N O P Q R S T U V W X Y Z

Korn - Starting Over tab

Song: Starting Over
Band: Korn
Album: Untitled
Tabbed by Korn07;korn rocker1306@aol.com

Standard tuning

Verse
|----------------------------------------------------------|
|----------------------------------------------------------|
|----------------------------------------------------------|
|----------------------------------------------------------| play this once
|7------7------7-10---7--8----7------7-----7-10---7-8----8-|
|5------5------5--8---5--6----5------5-----5--8---5-6----6-|


Chorus
|------------------------------------------------|
|------(10)9-------(10)9------(10)9--------------|
|------------------------------------------------|
|------------------------------------------------|  x2
|7-7---------7-7---------7-7----------10-10--8-8-|
|5-5---------5-5---------5-5-----------8--8--6-6-|


Pre Verse
|----------------------------------|
|----------------------------------|
|----------------------------------|
|----------------------------------| x2
|-7-7----7-7----7-7----10-10--8-8--|
|-5-5----5-5----5-5-----8--8--6-6--|


Verse 2
|----------------------------------|
|----------------------------------|
|----------------------------------|
|----------------------------------| x2
|7-7-----7-7-----7-7----10-10--8-8-|
|5-5-----5-5-----5-5-----8--8--6-6-|


Interlude
|----------------------------------------------------------------------|
|----------------------------------------------------------------------|
|9-999999-9-999999-9-777777-4444-9-999999-9-999999-12/7-777777-4444-5-7|
|----------------------------------------------------------------------|
|----------------------------------------------------------------------|
|----------------------------------------------------------------------|

After being played once this comes in also
|----------|               |-------------|
|----------|               |-------------|
|17--16--14|   Then this   |17--17--16/14|
|----------|               |-------------|
|----------|               |-------------|
|----------|               |-------------|


Outro

|------------------------------------------------------------------------|
|------------------------------------------------------------------------|
|------------------------------------------------------------------------|
|------------------------------------------------------------------------|
|8pm8pm---7pm8pm---7pm8pm---8pm8pm---7pm10pm---10pm10pm---7pm8pm---8pm8pm|
|6pm6pm---5pm6pm---5pm6pm---6pm6pm---5pm8pm-----8-pm8pm---5pm6pm---6pm6pm|

pm= palm mute

Okay those are all the riffs right there. You can just listen to the song to find out 
order of all of them.
Tap to rate this tab
 
# A B C D E F G H I J K L M N O P Q R S T U V W X Y Z