Guitaretab - guitar tabs
Song name
# A B C D E F G H I J K L M N O P Q R S T U V W X Y Z
Home / K / Korn / Hold On tab

Korn - Hold On tab

KoRn - Hold On - Untitled

Tabbed by Elvisz (elvisz84@yahoo.com)
Tuning : 7 String Tuned Low to High (A D G C F a d)

Vocal: Jonathan Houseman Davis 'Hiv'
Guitar: James Randal Shaffer 'Munky'
Bass: Reginald Arvizu 'Fieldy'
Drums: Terry Bozzio

Intro:
d|------------------------------------------------|
a|------------------------------------------------|
F|------------------------------------------------|
C|------------------------------------------------|	(guitar1)
G|-2~~~~--2-2~~~~---------------------------------|
D|-2~~~~--2-2~~~~--2-2-3-2------------------------|
A|-0~~~~--0-0~~~~--0-0-1-0--0000h1\(0)-0000h1\(0)-|
                            .......... ..........  .palm mute

d|---------------------------------------------------------------------|
a|---------------------------------------------------------------------|
F|---------------------------------------------------------------------|
C|-1616161616161616\1515151515151515\1414141414141414\1313131313131313-| (guitar2)
G|-xxxxxxxxxxxxxxxxxxxxxxxxxxxxxxxxxxxxxxxxxxxxxxxxxxxxxxxxxxxxxxxxxxx-|
D|-1414141414141414\1313131313131313\1212121212121212\1111111111111111-|
A|---------------------------------------------------------------------|

Verse:
d|--------------------------------|
a|--------------------------------|
F|--------------------------------|
C|--------------------------------|
G|--------------------------------|
D|-2-2-3-2------------------------|
A|-0-0-1-0--0000h1\(0)-0000h1\(0)-|
            .......... ..........  .palm mute

Fill1:
d|--------------------------------|
a|--------------------------------|
F|--------------------------------|
C|---999x10x11x12----999x10x11x12-|
G|---xxxxxxxxxxxx----xxxxxxxxxxxx-|
D|---777x 8x 9x10----777x 8x 9x10-|
A|-0---------------0--------------|

Verse:
d|--------------------------------|
a|--------------------------------|
F|--------------------------------|
C|--------------------------------|
G|--------------------------------|
D|-2-2-3-2------------------------|
A|-0-0-1-0--0000h1\(0)-0000h1\(0)-|
            .......... ..........  .palm mute

Pre-Chorus:
d|--------------------------------|
a|--------------------------------|
F|--------------------------------|
C|--------------------------------|	(guitar1)
G|--------------------------------|
D|-2-2-3-2------------------------|
A|-0-0-1-0--0000h1\(0)-0000h1\(0)-|
            .......... ..........  .palm mute

d|--------------------------|
a|--------------------------|
F|--------------------------|
C|-9999999999999999\77/1010-|	(guitar2)
G|-xxxxxxxxxxxxxxxxxxxxxxxx-|
D|-7777777777777777\55/ 8 8-|
A|--------------------------|

Chorus:
(guitar1)
d|------------------------------------------|
a|------------------------------------------|
F|------------------------------------------|
C|------------------------------------------|	(guitar1)
G|------------------------------------------|
D|---77h8r7----77h8r7----77h8r7----77h8r7---|
A|-0-------0-0-------0-0-------0-0--------0-|

d|------------------------------------|
a|------------------------------------|
F|-1212121212121212\11111111\10101010-|
C|-xxxxxxxxxxxxxxxxxxxxxxxxxxxxxxxxxx-|	(guitar1)
G|-1010101010101010\ 9 9 9 9\ 8 8 8 8-|
D|------------------------------------|
A|------------------------------------|

d|------------------------------------------|
a|------------------------------------------|
F|------------------------------------------|
C|------------------------------------------|	(guitar1)
G|------------------------------------------|
D|---77h8r7----77h8r7----77h8r7----77h8r7---|
A|-0-------0-0-------0-0-------0-0--------0-|

(guitar2)
d|-----------------------------|
a|-----------------------------|
F|-8~9~-12~-11~--8~-9~-12~-11~-|
C|-x-x--xx--xx---x--x--xx---x--|	(guitar2)
G|-6~7~-10~- 9~--6~-7~-10~- 9~-|
D|-----------------------------|
A|-----------------------------|

d|------------------------------------|
a|------------------------------------|
F|-1212121212121212\11111111\10101010-|
C|-xxxxxxxxxxxxxxxxxxxxxxxxxxxxxxxxxx-|	(guitar2)
G|-1010101010101010\ 9 9 9 9\ 8 8 8 8-|
D|------------------------------------|
A|------------------------------------|

d|-------------------------------------|
a|-------------------------------------|
F|-16161616\12121212\11111111/17171717-|
C|-xxxxxxxxxxxxxxxxxxxxxxxxxxxxxxxxxxx-|	(guitar2)
G|-14141414\10101010\ 9 9 9 9/15151515-|
D|-------------------------------------|
A|-------------------------------------|

Pre-Verse:
d|---------------------------------------|
a|---------------------------------------|
F|---------888/9\11----------121212\11\9-|
C|---------xxxxxxxx----------xxxxxxxxxxx-|
G|---------666/7/ 9----------101010\ 9\7-|
D|-2-2-3-2-----------2-2-3-2-------------|
A|-0-0-1-0-----------0-0-1-0-------------|

d|------------------------------------------|
a|------------------------------------------|
F|---------888/9\11----------111111/1212/16-|
C|---------xxxxxxxx----------xxxxxxxxxxxxxx-|
G|---------666/7/ 9---------- 9 9 9/1010/14-|
D|-2-2-3-2-----------2-2-3-2----------------|
A|-0-0-1-0-----------0-0-1-0----------------|

Verse:
d|---------|
a|---------|
F|---------|
C|---------|
G|---------|
D|-2-2-3-2-|
A|-0-0-1-0-|

d|--------------------------------|
a|--------------------------------|
F|--------------------------------|
C|--------------------------------|
G|--------------------------------|
D|-2-2-3-2------------------------|
A|-0-0-1-0--0000h1\(0)-0000h1\(0)-|
            .......... ..........  .palm mute

Fill1:
d|--------------------------------|
a|--------------------------------|
F|--------------------------------|
C|---999x10x11x12----999x10x11x12-|
G|---xxxxxxxxxxxx----xxxxxxxxxxxx-|
D|---777x 8x 9x10----777x 8x 9x10-|
A|-0---------------0--------------|
[ Tab from: http://www.guitaretab.com/k/korn/158598.html ]
Verse:
d|--------------------------------|
a|--------------------------------|
F|--------------------------------|
C|--------------------------------|
G|--------------------------------|
D|-2-2-3-2------------------------|
A|-0-0-1-0--0000h1\(0)-0000h1\(0)-|
            .......... ..........  .palm mute

Pre-Chorus:
d|--------------------------------|
a|--------------------------------|
F|--------------------------------|
C|--------------------------------|	(guitar1)
G|--------------------------------|
D|-2-2-3-2------------------------|
A|-0-0-1-0--0000h1\(0)-0000h1\(0)-|
            .......... ..........  .palm mute

d|--------------------------|
a|--------------------------|
F|--------------------------|
C|-9999999999999999\77/1010-|	(guitar2)
G|-xxxxxxxxxxxxxxxxxxxxxxxx-|
D|-7777777777777777\55/ 8 8-|
A|--------------------------|

Chorus:
(guitar1)
d|------------------------------------------|
a|------------------------------------------|
F|------------------------------------------|
C|------------------------------------------|	(guitar1)
G|------------------------------------------|
D|---77h8r7----77h8r7----77h8r7----77h8r7---|
A|-0-------0-0-------0-0-------0-0--------0-|

d|------------------------------------|
a|------------------------------------|
F|-1212121212121212\11111111\10101010-|
C|-xxxxxxxxxxxxxxxxxxxxxxxxxxxxxxxxxx-|	(guitar1)
G|-1010101010101010\ 9 9 9 9\ 8 8 8 8-|
D|------------------------------------|
A|------------------------------------|

d|------------------------------------------|
a|------------------------------------------|
F|------------------------------------------|
C|------------------------------------------|	(guitar1)
G|------------------------------------------|
D|---77h8r7----77h8r7----77h8r7----77h8r7---|
A|-0-------0-0-------0-0-------0-0--------0-|

(guitar2)
d|-----------------------------|
a|-----------------------------|
F|-8~9~-12~-11~--8~-9~-12~-11~-|
C|-x-x--xx--xx---x--x--xx---x--|	(guitar2)
G|-6~7~-10~- 9~--6~-7~-10~- 9~-|
D|-----------------------------|
A|-----------------------------|

d|------------------------------------|
a|------------------------------------|
F|-1212121212121212\11111111\10101010-|
C|-xxxxxxxxxxxxxxxxxxxxxxxxxxxxxxxxxx-|	(guitar2)
G|-1010101010101010\ 9 9 9 9\ 8 8 8 8-|
D|------------------------------------|
A|------------------------------------|

d|-------------------------------------|
a|-------------------------------------|
F|-16161616\12121212\11111111/17171717-|
C|-xxxxxxxxxxxxxxxxxxxxxxxxxxxxxxxxxxx-|	(guitar2)
G|-14141414\10101010\ 9 9 9 9/15151515-|
D|-------------------------------------|
A|-------------------------------------|

Fill2:
d|---------------------------------------|
a|---------------------------------------|
F|---------888/9\11----------121212\11\9-|
C|---------xxxxxxxx----------xxxxxxxxxxx-|
G|---------666/7/ 9----------101010\ 9\7-|
D|-2-2-3-2-----------2-2-3-2-------------|
A|-0-0-1-0-----------0-0-1-0-------------|

Bridge1:
d|---------------------------------------------------------------------|
a|---------------------------------------------------------------------|
F|-16161616---------19191919---------15151515---------16161616---------|
C|-xxxxxxxx---------xxxxxxxx---------xxxxxxxx---------xxxxxxxx---------|
G|-14141414---------17171717---------13131313---------14141414---------|
D|---------------------------------------------------------------------|
A|----------0-00010----------0-00010----------0-00010----------0-00010-|
            . .....          . .....          . .....          . .....  .palm mute  

Pre-Chorus:
d|--------------------------------|
a|--------------------------------|
F|--------------------------------|
C|--------------------------------|
G|--------------------------------|
D|-2-2-3-2------------------------|
A|-0-0-1-0--0000h1\(0)-0000h1\(0)-|
            .......... ..........  .palm mute

Chorus:
(guitar1)
d|------------------------------------------|
a|------------------------------------------|
F|------------------------------------------|
C|------------------------------------------|	(guitar1)
G|------------------------------------------|
D|---77h8r7----77h8r7----77h8r7----77h8r7---|
A|-0-------0-0-------0-0-------0-0--------0-|

d|------------------------------------|
a|------------------------------------|
F|-1212121212121212\11111111\10101010-|
C|-xxxxxxxxxxxxxxxxxxxxxxxxxxxxxxxxxx-|	(guitar1)
G|-1010101010101010\ 9 9 9 9\ 8 8 8 8-|
D|------------------------------------|
A|------------------------------------|

d|------------------------------------------|
a|------------------------------------------|
F|------------------------------------------|
C|------------------------------------------|	(guitar1)
G|------------------------------------------|
D|---77h8r7----77h8r7----77h8r7----77h8r7---|
A|-0-------0-0-------0-0-------0-0--------0-|

(guitar2)
d|-----------------------------|
a|-----------------------------|
F|-8~9~-12~-11~--8~-9~-12~-11~-|
C|-x-x--xx--xx---x--x--xx---x--|	(guitar2)
G|-6~7~-10~- 9~--6~-7~-10~- 9~-|
D|-----------------------------|
A|-----------------------------|

d|------------------------------------|
a|------------------------------------|
F|-1212121212121212\11111111\10101010-|
C|-xxxxxxxxxxxxxxxxxxxxxxxxxxxxxxxxxx-|	(guitar2)
G|-1010101010101010\ 9 9 9 9\ 8 8 8 8-|
D|------------------------------------|
A|------------------------------------|

d|-------------------------------------|
a|-------------------------------------|
F|-16161616\12121212\11111111/17171717-|
C|-xxxxxxxxxxxxxxxxxxxxxxxxxxxxxxxxxxx-|	(guitar2)
G|-14141414\10101010\ 9 9 9 9/15151515-|
D|-------------------------------------|
A|-------------------------------------|

Outro:
d|---------------------|
a|---------------------|
F|---------------------|
C|---------------------|
G|---------------------|
D|-2-2-3-2-------------|
A|-0-0-1-0--0000h1\(0)-|
            ..........  .palm mute
Related for Hold On tab
Hold On chords by Korn