Song name
# A B C D E F G H I J K L M N O P Q R S T U V W X Y Z

Korn - Kiss tab

It's a very nice, slowly, melodic song from KoRn's new UNTITLED Album.
There's a riff that munky play very often. I'm gonna put a note in (), so
then it's a power chord and sounds more melodic. This is 6 String Version.
There aren't any big differents from the 7 String Version cause the 7th only
get used in the chorus but I doesn't matter.

Tune your guitar one step down:
EADGBE --> DGCFAD


Intro/Verse
[clean and delay or reverb]
D-----------------------------------------------------------------------------|
A-(10)-(10)-(10)-(10)--(13)-(13)-(13)-(13)-(18)-(18)-(20)-(17)-(17)-(17)-(15)-|
F--9---9----9----9-----12---12---12---12---17---17---19---16---16---16---14---|
C--7---7----7----7-----10---10---10---10---15---15---17---14---14---14---12---|
G-----------------------------------------------------------------------------|
D-----------------------------------------------------------------------------|

Chorus
[distortion]
D---------------------------------------------------------------|
A---------------------------------------------------------------|
F---------------------------101010101010~--9999999~-------------|
C--777777~---101010101010~--101010101010~--9999999~-------------|
G--777777~---8-8-8-8-8-8~~--8-8-8-8-8-8~~--7777777~-------------|
D--555555~---8-8-8-8-8-8~~--------------------------------------|

(it's 10 10 10 not 1 0 1 0)

again the verse and the chorus. Same effects

solo
[reverb and middle distortion]

D---------------------------------------------------------------|
A---------------------------------------------------------------|
F-22b/r-p19--21^--19-21-22-24-19-17-19~-------------------------|
C---------------------------------------------------------------|
G---------------------------------------------------------------|
D---------------------------------------------------------------|

or for those who haven't got a 24th fret

D---------------------------------------------------------------|
A--------------------------20-----------------------------------|
F-22b/r-p19--21^--19-21-22----19-17-19~-------------------------|
C---------------------------------------------------------------|
G---------------------------------------------------------------|
D---------------------------------------------------------------|

then the chorus again

outro

D------------------------------------------|
A------------------------------------------|
F-14~~~~~~16~17~~~21~14~~~~17~~12~~~~~~~9~-
C------------------------------------------|
G------------------------------------------|
D------------------------------------------|

D------------------------------------------|
A------------------------------------------|
F-14~~-91412~~~~-1412----------------------|
C--------------------1412~~~~~(14)~~15~17~-|
G------------------------------------------|
D------------------------------------------|

(got this outro version from another tab cause I couldn't figured it out on my own. 
for this)
Tap to rate this tab
# A B C D E F G H I J K L M N O P Q R S T U V W X Y Z