Song name
# A B C D E F G H I J K L M N O P Q R S T U V W X Y Z

Korn - Twisted Transistor tab

       S  S  S  S  S  S E  E  E   S  S  S  S S  
F ||-------------------------------------------|
C ||-------------------------------------------|
G#||-------------------------------------------|
D#||--(5)---(5)---(5)------------(5)---(5)-----|
A#||--(3)---(3)---(3)---3--4--3--(3)---(3)-----|
F ||-------------------------------------------|


  Q     S  S  S  S  S  S S S E  E      S  S  S  S  S  S E  E  E   S  S  S  S S  
-----------------------------------|-------------------------------------------|
-----------------------------------|-------------------------------------------|
-----------------------------------|-------------------------------------------|
--5----(5)---(5)---(5)-------------|--(5)---(5)---(5)------------(5)---(5)-----|
--3----(3)---(3)---(3)-------3--4--|--(3)---(3)---(3)---3--4--3--(3)---(3)-----|
-----------------------------------|-------------------------------------------|


  Q     S  S  S  S  S  S S S E  E      S  S  S  S  S  S E  E  E   S  S  S  S S  
-----------------------------------|-------------------------------------------|
-----------------------------------|-------------------------------------------|
-----------------------------------|-------------------------------------------|
--5----(5)---(5)---(5)-------------|--(5)---(5)---(5)------------(5)---(5)-----|
--3----(3)---(3)---(3)-------3--4--|--(3)---(3)---(3)---3--4--3--(3)---(3)-----|
-----------------------------------|-------------------------------------------|


  Q     S  S  S  S  S  S S S E  E      S  S  S  S  S  S E  E  E   S  S  S  S S  
-----------------------------------|-------------------------------------------|
-----------------------------------|-------------------------------------------|
-----------------------------------|-------------------------------------------|
--5----(5)---(5)---(5)-------------|--(5)---(5)---(5)------------(5)---(5)-----|
--3----(3)---(3)---(3)-------3--4--|--(3)---(3)---(3)---3--4--3--(3)---(3)-----|
-----------------------------------|-------------------------------------------|


  Q     S  S  S  S  S  S S S E  E      S  S  S  S  S  S E  E  E   S  S  S  S S  
-----------------------------------|-------------------------------------------|
-----------------------------------|-------------------------------------------|
-----------------------------------|-------------------------------------------|
--5----(5)---(5)---(5)-------------|--(5)---(5)---(5)------------(5)---(5)-----|
--3----(3)---(3)---(3)-------3--4--|--(3)---(3)---(3)---3--4--3--(3)---(3)-----|
-----------------------------------|-------------------------------------------|


  Q     S  S  S  S  S  S S S E  E      S  S  S  S  S  S E  E  E   S  S  S  S S  
-----------------------------------|-------------------------------------------|
-----------------------------------|-------------------------------------------|
-----------------------------------|-------------------------------------------|
--5----(5)---(5)---(5)-------------|--(5)---(5)---(5)------------(5)---(5)-----|
--3----(3)---(3)---(3)-------3--4--|--(3)---(3)---(3)---3--4--3--(3)---(3)-----|
-----------------------------------|-------------------------------------------|


  Q     S  S  S  S  S  S S S E  E      S  S  S  S  S  S E  E  E   S  S  S  S S  
-----------------------------------|-------------------------------------------|
-----------------------------------|-------------------------------------------|
-----------------------------------|-------------------------------------------|
--5----(5)---(5)---(5)-------------|--(5)---(5)---(5)------------(5)---(5)-----|
--3----(3)---(3)---(3)-------3--4--|--(3)---(3)---(3)---3--4--3--(3)---(3)-----|
-----------------------------------|-------------------------------------------|


  Q     S  S  S  S  S  S S S E  E      S  S  S  S  S  S E  E  E   S  S  S  S S  
-----------------------------------|-------------------------------------------|
-----------------------------------|-------------------------------------------|
-----------------------------------|-------------------------------------------|
--5----(5)---(5)---(5)-------------|--(5)---(5)---(5)------------(5)---(5)-----|
--3----(3)---(3)---(3)-------3--4--|--(3)---(3)---(3)---3--4--3--(3)---(3)-----|
-----------------------------------|-------------------------------------------|


  Q     S  S  S  S  S  S S S E  E      S  S  E   Q     S  S  E   Q     
-----------------------------------|----------------------------------|
-----------------------------------|----------------------------------|
-----------------------------------|----------------------------------|
--5----(5)---(5)---(5)-------------|--(5)---(5)--3----(5)---(5)--4----|
--3----(3)---(3)---(3)-------3--4--|--(3)---(3)--3----(3)---(3)--4----|
-----------------------------------|--(3)---(3)--1----(3)---(3)--2----|


   S  S  E   Q     S  S  E   Q        S  S  E   Q     S  S  E   Q     
----------------------------------|----------------------------------|
----------------------------------|----------------------------------|
----------------------------------|----------------------------------|
--(5)---(5)-------(5)---(5)-------|--(5)---(5)--3----(5)---(5)--4----|
--(3)---(3)--6----(3)---(3)--3----|--(3)---(3)--3----(3)---(3)--4----|
--(3)---(3)--6----(3)---(3)--3----|--(3)---(3)--1----(3)---(3)--2----|


   S  S  E   Q     S  S  E   Q       S S E  S S E  S S E  S S  
----------------------------------|---------------------------|
----------------------------------|---------------------------|
----------------------------------|---------------------------|
--(5)---(5)-------(5)---(5)-------|------5------6------8------|
--(3)---(3)--6----(3)---(3)--3----|------3------4------6------|
--(3)---(3)--6----(3)---(3)--3----|------3------4------6------|


  S S E  S S E  S S E  S S    S S E  S S E  S S E  S S  
---------------------------|---------------------------|
---------------------------|---------------------------|
---------------------------|---------------------------|
------5------6------8------|------5------6------8------|
------3------4------6------|------3------4------6------|
------3------4------6------|------3------4------6------|


  S S E  S S E  S S E  S S     S  S  S  S  S  S E  E  E   S  S  S  S S  
---------------------------|-------------------------------------------|
---------------------------|-------------------------------------------|
---------------------------|-------------------------------------------|
------5------6------8------|--(5)---(5)---(5)------------(5)---(5)-----|
------3------4------6------|--(3)---(3)---(3)---3--4--3--(3)---(3)-----|
------3------4------6------|-------------------------------------------|


  Q     S  S  S  S  S  S S S E  E      S  S  S  S  S  S E  E  E   S  S  S  S S  
-----------------------------------|-------------------------------------------|
-----------------------------------|-------------------------------------------|
-----------------------------------|-------------------------------------------|
--5----(5)---(5)---(5)-------------|--(5)---(5)---(5)------------(5)---(5)-----|
--3----(3)---(3)---(3)-------3--4--|--(3)---(3)---(3)---3--4--3--(3)---(3)-----|
-----------------------------------|-------------------------------------------|


  Q     S  S  S  S  S  S S S E  E      S  S  S  S  S  S E  E  E   S  S  S  S S  
-----------------------------------|-------------------------------------------|
-----------------------------------|-------------------------------------------|
-----------------------------------|-------------------------------------------|
--5----(5)---(5)---(5)-------------|--(5)---(5)---(5)------------(5)---(5)-----|
--3----(3)---(3)---(3)-------3--4--|--(3)---(3)---(3)---3--4--3--(3)---(3)-----|
-----------------------------------|-------------------------------------------|


  Q     S  S  S  S  S  S S S E  E      S  S  S  S  S  S E  E  E   S  S  S  S S  
-----------------------------------|-------------------------------------------|
-----------------------------------|-------------------------------------------|
-----------------------------------|-------------------------------------------|
--5----(5)---(5)---(5)-------------|--(5)---(5)---(5)------------(5)---(5)-----|
--3----(3)---(3)---(3)-------3--4--|--(3)---(3)---(3)---3--4--3--(3)---(3)-----|
-----------------------------------|-------------------------------------------|


  Q     S  S  S  S  S  S S S E  E      S  S  S  S  S  S E  E  E   S  S  S  S S  
-----------------------------------|-------------------------------------------|
-----------------------------------|-------------------------------------------|
-----------------------------------|-------------------------------------------|
--5----(5)---(5)---(5)-------------|--(5)---(5)---(5)------------(5)---(5)-----|
--3----(3)---(3)---(3)-------3--4--|--(3)---(3)---(3)---3--4--3--(3)---(3)-----|
-----------------------------------|-------------------------------------------|


  Q     S  S  S  S  S  S S S E  E      S  S  S  S  S  S E  E  E   S  S  S  S S  
-----------------------------------|-------------------------------------------|
-----------------------------------|-------------------------------------------|
-----------------------------------|-------------------------------------------|
--5----(5)---(5)---(5)-------------|--(5)---(5)---(5)------------(5)---(5)-----|
--3----(3)---(3)---(3)-------3--4--|--(3)---(3)---(3)---3--4--3--(3)---(3)-----|
-----------------------------------|-------------------------------------------|


  Q     S  S  S  S  S  S S S E  E      S  S  S  S  S  S E  E  E   S  S  S  S S  
-----------------------------------|-------------------------------------------|
-----------------------------------|-------------------------------------------|
-----------------------------------|-------------------------------------------|
--5----(5)---(5)---(5)-------------|--(5)---(5)---(5)------------(5)---(5)-----|
--3----(3)---(3)---(3)-------3--4--|--(3)---(3)---(3)---3--4--3--(3)---(3)-----|
-----------------------------------|-------------------------------------------|


  Q     S  S  S  S  S  S S S E  E      S  S  S  S  S  S E  E  E   S  S  S  S S  
-----------------------------------|-------------------------------------------|
-----------------------------------|-------------------------------------------|
-----------------------------------|-------------------------------------------|
--5----(5)---(5)---(5)-------------|--(5)---(5)---(5)------------(5)---(5)-----|
--3----(3)---(3)---(3)-------3--4--|--(3)---(3)---(3)---3--4--3--(3)---(3)-----|
-----------------------------------|-------------------------------------------|


  Q     S  S  S  S  S  S S S E  E      S  S  E   Q     S  S  E   Q     
-----------------------------------|----------------------------------|
-----------------------------------|----------------------------------|
-----------------------------------|----------------------------------|
--5----(5)---(5)---(5)-------------|--(5)---(5)--3----(5)---(5)--4----|
--3----(3)---(3)---(3)-------3--4--|--(3)---(3)--3----(3)---(3)--4----|
-----------------------------------|--(3)---(3)--1----(3)---(3)--2----|


   S  S  E   Q     S  S  E   Q        S  S  E   Q     S  S  E   Q     
----------------------------------|----------------------------------|
----------------------------------|----------------------------------|
----------------------------------|----------------------------------|
--(5)---(5)-------(5)---(5)-------|--(5)---(5)--3----(5)---(5)--4----|
--(3)---(3)--6----(3)---(3)--3----|--(3)---(3)--3----(3)---(3)--4----|
--(3)---(3)--6----(3)---(3)--3----|--(3)---(3)--1----(3)---(3)--2----|


   S  S  E   Q     S  S  E   Q       S S E  S S E  S S E  S S  
----------------------------------|---------------------------|
----------------------------------|---------------------------|
----------------------------------|---------------------------|
--(5)---(5)-------(5)---(5)-------|------5------6------8------|
--(3)---(3)--6----(3)---(3)--3----|------3------4------6------|
--(3)---(3)--6----(3)---(3)--3----|------3------4------6------|


  S S E  S S E  S S E  S S    S S E  S S E  S S E  S S  
---------------------------|---------------------------|
---------------------------|---------------------------|
---------------------------|---------------------------|
------5------6------8------|------5------6------8------|
------3------4------6------|------3------4------6------|
------3------4------6------|------3------4------6------|


  S S E  S S E  S S E  S S     S  S  S  S  S  S E  E  E   S  S  S  S S  
---------------------------|-------------------------------------------|
---------------------------|-------------------------------------------|
---------------------------|-------------------------------------------|
------5------6------8------|--(5)---(5)---(5)------------(5)---(5)-----|
------3------4------6------|--(3)---(3)---(3)---3--4--3--(3)---(3)-----|
------3------4------6------|-------------------------------------------|


  Q     S  S  S  S  S  S S S E  E      S  S  S  S  S  S E  E  E   S  S  S  S S  
-----------------------------------|-------------------------------------------|
-----------------------------------|-------------------------------------------|
-----------------------------------|-------------------------------------------|
--5----(5)---(5)---(5)-------------|--(5)---(5)---(5)------------(5)---(5)-----|
--3----(3)---(3)---(3)-------3--4--|--(3)---(3)---(3)---3--4--3--(3)---(3)-----|
-----------------------------------|-------------------------------------------|


  Q     S  S  S  S  S  S S S E  E      S  S  S  S  S  S E  E  E   S  S  S  S S  
-----------------------------------|-------------------------------------------|
-----------------------------------|-------------------------------------------|
-----------------------------------|-------------------------------------------|
--5----(5)---(5)---(5)-------------|--(5)---(5)---(5)------------(5)---(5)-----|
--3----(3)---(3)---(3)-------3--4--|--(3)---(3)---(3)---3--4--3--(3)---(3)-----|
-----------------------------------|-------------------------------------------|


  Q     S  S  S  S  S  S S S E  E      S  S  S  S  S  S E  E  E   S  S  S  S S  
-----------------------------------|-------------------------------------------|
-----------------------------------|-------------------------------------------|
-----------------------------------|-------------------------------------------|
--5----(5)---(5)---(5)-------------|--(5)---(5)---(5)------------(5)---(5)-----|
--3----(3)---(3)---(3)-------3--4--|--(3)---(3)---(3)---3--4--3--(3)---(3)-----|
-----------------------------------|-------------------------------------------|


  Q     S  S  S  S  S  S S S E  E     S S E  E  E  E  E  E  E   
-----------------------------------|---------------------------|
-----------------------------------|---------------------------|
-----------------------------------|---------------------------|
--5----(5)---(5)---(5)-------------|------5--5--5--5--4--4--3--|
--3----(3)---(3)---(3)-------3--4--|------3--3--3--3--2--2--1--|
-----------------------------------|---------------------------|


  E  E  E  E  E  E  E  E     S S E  E  E  E  E  E  E   
--------------------------|---------------------------|
--------------------------|---------------------------|
--------------------------|---------------------------|
-----3-----4-----5--------|------5--5--5--5--4--4--3--|
-----1-----2-----3--------|------3--3--3--3--2--2--1--|
--------------------------|---------------------------|


  E  E  E  E  E  E  E  E     S S E  E  E  E  E  E  E   
--------------------------|---------------------------|
--------------------------|---------------------------|
--------------------------|---------------------------|
-----3-----4-----5--------|------5--5--5--5--4--4--3--|
-----1-----2-----3--------|------3--3--3--3--2--2--1--|
--------------------------|---------------------------|


  E  E  E  E  E  E  E  E     S S E  E  E  E  E  E  E   
--------------------------|---------------------------|
--------------------------|---------------------------|
--------------------------|---------------------------|
-----3-----4-----5--------|------5--5--5--5--4--4--3--|
-----1-----2-----3--------|------3--3--3--3--2--2--1--|
--------------------------|---------------------------|


  E  E  E  E  E  E  E  E     W                                     
--------------------------|-------------------|-------------------|
--------------------------|-------------------|-------------------|
--------------------------|-------------------|-------------------|
-----3-----4-----5--------|--5----------------|-------------------|
-----1-----2-----3--------|--3----------------|-------------------|
--------------------------|--3----------------|-------------------|


                                                     TP                
  S S E  E  E   Q    Q       Q    Q    Q     Q       W                 
--------------------------|-----------------------|--8----------------|
--------------------------|-----------------------|--8----------------|
--------------------------|-----------------------|-------------------|
------8--8--8-------------|-----------------------|-------------------|
---------------10----8----|--6--------------10----|-------------------|
--------------------------|-------8----6----------|-------------------|


  TP                                                                   
  W                   S S E  E  E   Q    Q       Q    Q    Q     Q     
--8----------------|--------------------------|-----------------------|
--8----------------|--------------------------|-----------------------|
-------------------|--------------------------|-----------------------|
-------------------|------8--8--8-------------|-----------------------|
-------------------|---------------10----8----|--6--------------10----|
-------------------|--------------------------|-------8----6----------|


  TP                  TP                                              
  W                   E      S  S  S  S  S  S E  E  E   S  S  S  S S  
--8----------------|--8--|-------------------------------------------|
--8----------------|--8--|-------------------------------------------|
-------------------|-----|-------------------------------------------|
-------------------|-----|--(5)---(5)---(5)------------(5)---(5)-----|
-------------------|-----|--(3)---(3)---(3)---3--4--3--(3)---(3)-----|
-------------------|-----|-------------------------------------------|


  Q     S  S  S  S  S  S S S E  E      S  S  S  S  S  S E  E  E   S  S  S  S S  
-----------------------------------|-------------------------------------------|
-----------------------------------|-------------------------------------------|
-----------------------------------|-------------------------------------------|
--5----(5)---(5)---(5)-------------|--(5)---(5)---(5)------------(5)---(5)-----|
--3----(3)---(3)---(3)-------3--4--|--(3)---(3)---(3)---3--4--3--(3)---(3)-----|
-----------------------------------|-------------------------------------------|


  Q     S  S  S  S  S  S S S E  E      S  S  S  S  S  S E  E  E   S  S  S  S S  
-----------------------------------|-------------------------------------------|
-----------------------------------|-------------------------------------------|
-----------------------------------|-------------------------------------------|
--5----(5)---(5)---(5)-------------|--(5)---(5)---(5)------------(5)---(5)-----|
--3----(3)---(3)---(3)-------3--4--|--(3)---(3)---(3)---3--4--3--(3)---(3)-----|
-----------------------------------|-------------------------------------------|


  Q     S  S  S  S  S  S S S E  E      S  S  S  S  S  S E  E  E   S  S  S  S S  
-----------------------------------|-------------------------------------------|
-----------------------------------|-------------------------------------------|
-----------------------------------|-------------------------------------------|
--5----(5)---(5)---(5)-------------|--(5)---(5)---(5)------------(5)---(5)-----|
--3----(3)---(3)---(3)-------3--4--|--(3)---(3)---(3)---3--4--3--(3)---(3)-----|
-----------------------------------|-------------------------------------------|


  S   
----||
----||
----||
--5-||
--3-||
----||




Duration Legend
---------------
W - whole
H - half
Q - quarter
E - 8th
S - 16th
T - 32nd
X - 64th
. - note dotted
|-n-|  - n-tuplets


Tablature Legend
----------------
L - tied note
x - dead note
g - grace note
(n) - ghost note
> - accentuded note
NH - natural harmonic
AH - artificial harmonic
TH - tapped harmonic
SH - semi harmonic
PH - pitch harmonic
h - hammer on
p - pull off
b - bend
br - bendRelease
pb - preBend
pbr - preBendRelease
brb - bendReleaseBend
\n/ - tremolo bar dip
\n - tremolo bar dive
-/n - tremolo bar Release up
/n\ - tremolo bar inverted dip
/n - tremolo bar return
-\n - tremolo bar Release down
S - shift slide
s - legato slide
/ -  slide into from below or out of upwards
\ -  slide into from above or out of downwards
~ - vibrato
W - wide vibrato
tr - trill
TP - tremolo picking
T - tapping
S - slap
P - pop
< - fade in
^ - brush up
v - brush down
Tap to rate this tab
# A B C D E F G H I J K L M N O P Q R S T U V W X Y Z