Song name
# A B C D E F G H I J K L M N O P Q R S T U V W X Y Z

Korn - No Way tab

Gtr I (A D G C F A D) - 'Head/Munky'
Gtr II (A D G C F A D) - 'Head'
Gtr III (A D G C F A D) - 'Munky'
Gtr IV (A D G C F A D) - 'Synth'
Gtr V (A D G C F A D) - 'Synth'
Gtr VI (A D G C F A D) - 'Head/Munky'


 Intro
  Q=100
  N.C.
 4/4
  Gtr I
   E   E  a  E  E  E  a Q.      E   E  a  E  E  E  a Q.
|---------3s15-15-14-14s2----|---------3s15-15-14-14s2----|
|---------5s17-17------------|---------5s17-17------------|
|-12-(12)--------------------|-12-(12)--------------------|
|-----14---------------------|-----14---------------------|
|----------------------------|----------------------------|
|----------------------------|----------------------------|
|----------------------------|----------------------------|


   E   E  a  E  E  E  a Q.      E   E  a  E  E  Q    a Q
|---------3s15-15-14-14s2----|---------3s15-15-14\--14s2----||
|---------5s17-17------------|---------5s17-17--------------||
|-12-(12)--------------------|-12-(12)----------------------||
|-----14---------------------|-----14-----------------------||
|----------------------------|------------------------------||
|----------------------------|------------------------------||
|----------------------------|------------------------------||


   Pre-Verse
    G/B         B5    G/B          B5
    Gtr II
     S  S  S  S E +E  +H
||--------------------------------------|
||--------------------------------------|
||o-------------------------------------|
||--------------------------------------|
||o-10-10-10-10-9-(9)-(9)---------------|
||---7--7--7--7-7-(7)-(7)---------------|
||--------------------------------------|
|
|   Gtr III
|    H                 S   S  S  S  E E
||--------------------------------------|
||--------------------------------------|
||o-------------------12--12-12-12-11---|
||---------------------9---9--9--9--9---|
||o-------------------------------------|
||--------------------------------------|
||------------------------------------0-|


  G/B          B5    G/B          B5
   S   S  S  S E +E  +H                    4x
|------------------------------------------||
|------------------------------------------||
|-----------------------------------------o||
|------------------------------------------||
|-10--10-10-10-9-(9)-(9)------------------o||
|--7---7--7--7-7-(7)-(7)-------------------||
|------------------------------------------||
|
| +H                  S   S  S  S  E   E   4x
|------------------------------------------||
|------------------------------------------||
|--------------------12--12-12-12-11-(11)-o||
|---------------------9---9--9--9--9--(9)--||
|-----------------------------------------o||
|------------------------------------------||
|-(0)----------------------------------0---||


  B
  q  H.        W          W          W
|------------|----------|----------|------||
|------------|----------|----------|------||
|------------|----------|----------|------||
|------------|----------|----------|------||
|------------|----------|----------|------||
|------------|----------|----------|------||
|-0----------|----------|----------|------||


   Verse
    N.C.
    Gtr I
     E  E  E  E  E   E  +Q      E  E  E  E  Q    Q
||--------15-15-14\----------|-------15-15-14\------|
||--------17-17--------------|-------17-17----------|
||o-12-----------------------|-12-------------------|
||-----14-----------16-(16)--|----14------------16--|
||o--------------------------|----------------------|
||---------------------------|----------------------|
||---------------------------|----------------------|


   E  E  E  E  E   E  +Q      E  E  E  E  Q    Q
|-------15-15-14\----------|-------15-15-14\--------||
|-------17-17--------------|-------17-17------------||
|-12-----------------------|-12--------------------o||
|----14-----------16-(16)--|----14------------16----||
|--------------------------|-----------------------o||
|--------------------------|------------------------||
|--------------------------|------------------------||


   Chorus
    G/B         B5    G/B          B5
    Gtr II
     S  S  S  S E +E  +H
||--------------------------------------|
||--------------------------------------|
||o-------------------------------------|
||--------------------------------------|
||o-10-10-10-10-9-(9)-(9)---------------|
||---7--7--7--7-7-(7)-(7)---------------|
||--------------------------------------|
|
|   Gtr III
|    H                 S   S  S  S  E E
||--------------------------------------|
||--------------------------------------|
||o-------------------12--12-12-12-11---|
||---------------------9---9--9--9--9---|
||o-------------------------------------|
||--------------------------------------|
||------------------------------------0-|


  G/B          B5    G/B          B5
   S   S  S  S E +E  +H                    4x
|------------------------------------------||
|------------------------------------------||
|-----------------------------------------o||
|------------------------------------------||
|-10--10-10-10-9-(9)-(9)------------------o||
|--7---7--7--7-7-(7)-(7)-------------------||
|------------------------------------------||
|
| +H                  S   S  S  S  E   E   4x
|------------------------------------------||
|------------------------------------------||
|--------------------12--12-12-12-11-(11)-o||
|---------------------9---9--9--9--9--(9)--||
|-----------------------------------------o||
|------------------------------------------||
|-(0)----------------------------------0---||


  B
  q  H.        W
|------------|------||
|------------|------||
|------------|------||
|------------|------||
|------------|------||
|------------|------||
|-0----------|------||


   Verse
    N.C.
    Gtr I
     E  E  E  E  E   E  +Q      E  E  E  E  Q    Q
||--------15-15-14\----------|-------15-15-14\------|
||--------17-17--------------|-------17-17----------|
||o-12-----------------------|-12-------------------|
||-----14-----------16-(16)--|----14------------16--|
||o--------------------------|----------------------|
||---------------------------|----------------------|
||---------------------------|----------------------|


   E  E  E  E  E   E  +Q      E  E  E  E  Q    Q
|-------15-15-14\----------|-------15-15-14\--------||
|-------17-17--------------|-------17-17------------||
|-12-----------------------|-12--------------------o||
|----14-----------16-(16)--|----14------------16----||
|--------------------------|-----------------------o||
|--------------------------|------------------------||
|--------------------------|------------------------||


   Chorus
    G/B         B5    G/B          B5
    Gtr II
     S  S  S  S E +E  +H
||--------------------------------------|
||--------------------------------------|
||o-------------------------------------|
||--------------------------------------|
||o-10-10-10-10-9-(9)-(9)---------------|
||---7--7--7--7-7-(7)-(7)---------------|
||--------------------------------------|
|
|   Gtr III
|    H                 S   S  S  S  E E
||--------------------------------------|
||--------------------------------------|
||o-------------------12--12-12-12-11---|
||---------------------9---9--9--9--9---|
||o-------------------------------------|
||--------------------------------------|
||------------------------------------0-|


  G/B          B5    G/B          B5
   S   S  S  S E +E  +H                    4x
|------------------------------------------||
|------------------------------------------||
|-----------------------------------------o||
|------------------------------------------||
|-10--10-10-10-9-(9)-(9)------------------o||
|--7---7--7--7-7-(7)-(7)-------------------||
|------------------------------------------||
|
| +H                  S   S  S  S  E   E   4x
|------------------------------------------||
|------------------------------------------||
|--------------------12--12-12-12-11-(11)-o||
|---------------------9---9--9--9--9--(9)--||
|-----------------------------------------o||
|------------------------------------------||
|-(0)----------------------------------0---||


   Interlude
    B     E   F#          G   F#    B     E   F#    D     F#  G
    Gtrs IV, V, VI
     H     Q   Q     H     Q   Q     H     Q   Q     H     Q   Q    3x
||--------12--14--|-------15--14--|-------12--14--|-------14--15----||
||--12------------|-15------------|-12------------|-15--------------||
||o--------9--11--|-------12--11--|--------9--11--|-------11--12---o||
||---9------------|-12------------|--9------------|-12--------------||
||o---------------|---------------|---------------|----------------o||
||----------------|---------------|---------------|-----------------||
||----------------|---------------|---------------|-----------------||


   Pre-Chorus
    N.C.
    Gtrs II, III
     E  E  E  E  E   E  +Q      E  E  E  E  Q    Q
||--------15-15-14\----------|-------15-15-14\------|
||--------17-17--------------|-------17-17----------|
||o-12-----------------------|-12-------------------|
||-----14-----------16-(16)--|----14------------16--|
||o--------------------------|----------------------|
||---------------------------|----------------------|
||---------------------------|----------------------|


   E  E  E  E  E   E  +Q      E  E  E  E  Q    Q
|-------15-15-14\----------|-------15-15-14\--------||
|-------17-17--------------|-------17-17------------||
|-12-----------------------|-12--------------------o||
|----14-----------16-(16)--|----14------------16----||
|--------------------------|-----------------------o||
|--------------------------|------------------------||
|--------------------------|------------------------||


   Chorus
    G/B         B5    G/B          B5
    Gtr II
     S  S  S  S E +E  +H
||--------------------------------------|
||--------------------------------------|
||o-------------------------------------|
||--------------------------------------|
||o-10-10-10-10-9-(9)-(9)---------------|
||---7--7--7--7-7-(7)-(7)---------------|
||--------------------------------------|
|
|   Gtr III
|    H                 S   S  S  S  E E
||--------------------------------------|
||--------------------------------------|
||o-------------------12--12-12-12-11---|
||---------------------9---9--9--9--9---|
||o-------------------------------------|
||--------------------------------------|
||------------------------------------0-|


  G/B          B5    G/B          B5
   S   S  S  S E +E  +H                    4x
|------------------------------------------||
|------------------------------------------||
|-----------------------------------------o||
|------------------------------------------||
|-10--10-10-10-9-(9)-(9)------------------o||
|--7---7--7--7-7-(7)-(7)-------------------||
|------------------------------------------||
|
| +H                  S   S  S  S  E   E   4x
|------------------------------------------||
|------------------------------------------||
|--------------------12--12-12-12-11-(11)-o||
|---------------------9---9--9--9--9--(9)--||
|-----------------------------------------o||
|------------------------------------------||
|-(0)----------------------------------0---||


    G/B                B5         G/B       B5
    Gtr I
     E      E     a  E  E   E      a  Q.
||----------------3s15-15--14-----14s=2----------|
||----------------5s17-17------------------------|
||o-12----(12)-----------------------------------|
||---------14------------------------------------|
||o----------------------------------------------|
||-----------------------------------------------|
||-----------------------------------------------|
|
|   Gtr II
|    S  S   S   S    E +E  +H
||-----------------------------------------------|
||-----------------------------------------------|
||o----------------------------------------------|
||-----------------------------------------------|
||o-10-10--10--10----9-(9)-(9)-------------------|
||---7--7---7---7----7-(7)-(7)-------------------|
||-----------------------------------------------|
|
|   Gtr III
|    H                      S   S     S   S  E E
||-----------------------------------------------|
||-----------------------------------------------|
||o------------------------12--12----12--12-11---|
||--------------------------9---9-----9---9--9---|
||o----------------------------------------------|
||-----------------------------------------------|
||---------------------------------------------0-|


  G/B                 B5               G/BB5
   E       E     a  E  E   Q            a  Q       4x
|----------------3s15-15--14\----------14s=2-------||
|----------------5s17-17---------------------------||
|-12-----(12)-------------------------------------o||
|---------14---------------------------------------||
|-------------------------------------------------o||
|--------------------------------------------------||
|--------------------------------------------------||
|
|  S   S   S   S    E +E  +H                       4x
|--------------------------------------------------||
|--------------------------------------------------||
|-------------------------------------------------o||
|--------------------------------------------------||
|-10--10--10--10----9-(9)-(9)---------------------o||
|--7---7---7---7----7-(7)-(7)----------------------||
|--------------------------------------------------||
|
| +H                       S   S  S  S     E   E   4x
|--------------------------------------------------||
|--------------------------------------------------||
|-------------------------12--12-12-12----11-(11)-o||
|--------------------------9---9--9--9-----9--(9)--||
|-------------------------------------------------o||
|--------------------------------------------------||
|-(0)------------------------------------------0---||


   Outro
    B     E   F#    D     G   F#    B     E   F#    D     F#  G
    Gtrs IV, V, VI
     H     Q   Q     H     Q   Q     H     Q   Q     H     Q   Q
||--------12--14--|-------15--14--|-------12--14--|-------14--15----||
||--12------------|-15------------|-12------------|-15--------------||
||o--------9--11--|-------12--11--|--------9--11--|-------11--12---o||
||---9------------|-12------------|--9------------|-12--------------||
||o---------------|---------------|---------------|----------------o||
||----------------|---------------|---------------|-----------------||
||----------------|---------------|---------------|-----------------||


  B
   W            +W           +W           Wx5
|------------|-------------|------------|--------*|
|-12---------|-(12)--------|------------|--------*|
|------------|-------------|------------|--------*|
|--9---------|--(9)--------|------------|--------*|
|------------|-------------|------------|--------*|
|------------|-------------|------------|--------*|
|-(0)--------|--(0)--------|-(0)--------|--------*|




--------------------------------------------------------------------------------


Duration Legend
---------------
W - whole; H - half; Q - quarter; E - 8th; S - 16th; T - 32nd; X - 64th; a - acciaccatura
+ - note tied to previous; . - note dotted; .. - note double dotted
Uncapitalized letters represent notes that are staccato (1/2 duration)
Irregular groupings are notated above the duration line
Duration letters will always appear directly above the note/fret number it represents the
duration for.  Duration letters with no fret number below them represent rests.  Multi-
bar rests are notated in the form Wxn, where n is the number of bars to rest for.  Low
melody durations appear below the staff

Tablature Legend
----------------
 h   - hammer-on
 p   - pull-off
 b   - bend
 pb  - pre-bend
 r   - bend release (if no number after the r, then release immediately)
 /\  - slide into or out of (from/to "nowhere")
 s   - legato slide
 S   - shift slide
 - natural harmonic
[n]  - artificial harmonic
n(n) - tapped harmonic
 ~   - vibrato
 tr  - trill
 T   - tap
 TP  - trem. picking
 PM  - palm muting
\n/  - tremolo bar dip; n = amount to dip
 \n  - tremolo bar down
 n/  - tremolo bar up
/n\  - tremolo bar inverted dip
 =   - hold bend; also acts as connecting device for hammers/pulls
 <> - volume swell (louder/softer)
 x   - on rhythm slash represents muted slash
 o   - on rhythm slash represents single note slash

Misc Legend
-----------
 |  - bar
||  - double bar
||o - repeat start
o|| - repeat end
*|  - double bar (ending)
 :  - bar (freetime)
 $  - Segno
 &  - Coda
Tempo markers -  = BPM(8/16=s8/s16), where s8 = swing 8ths, s16 = swing 16ths

Tap to rate this tab
# A B C D E F G H I J K L M N O P Q R S T U V W X Y Z