Song name
# A B C D E F G H I J K L M N O P Q R S T U V W X Y Z

Korn - Wicked tab

----------------------------------------------------------------------------
			 Korn-Wicked
----------------------------------------------------------------------------
Tabbed by:DrewsGotTheLife
Email:cosmokotter@yahoo.com

Okay guys, the moment us Korn fans probaly have been waiting for, the accurate way
for the song Wicked.

Tuning:ADGCFAD


D|-----19b22*---19*-17*--16*-----------------------------------------------|
A|-------------------------------------------------------------------------|
F|-------------------------------------------------------------------------|
C|-------------------------------------------------------------------------|
G|-------------------------------------------------------------------------|
D|-------------------------------------------------------------------------|
A|-------------------------------------------------------------------------|


Chorus part

D|---------------------------------------------------------------------------|
A|---------------------------------------------------------------------------|
F|---------------------------------------------------------------------------|
C|---------------------------------------------------------------------------|
G|----6--5--4--8--7-6--------------------------------------------------------|
D|----6--5--4--8--7-6--------------------------------------------------------|
A|----4--3--3--6--5-3--------------------------------------------------------|



*=scream harmonic
Tap to rate this tab
 
# A B C D E F G H I J K L M N O P Q R S T U V W X Y Z