Song name
# A B C D E F G H I J K L M N O P Q R S T U V W X Y Z

Korn - Freak On A Leash Acoustic tab

Played on a 7 string acoustic guitar (tune to: A D G C F A D)   ('//,=repeat)
Intro                           (Repeat both bars)
|--12------------------------12------------|-12-------------------------|
|--12--------------------------------------|-12-------------15----------|
|--13---------------------13---------------|----------------------------|
|---------------------14-------------------|----------------------------|
|------------------------------------------|-12---------------------12--|
|--12---------------------------------12---|----------------------------|
|------------------------------------------|----------------------------|
Verse

|---12--------------------------12----------|--12------------------------|
|.--12--------------------------------------|--------------15------------|
|---13---------------------13---------------|--14----------14------------|
|--------------------14---------------------|----------------------------|
|.------------------------------------------|----------------------------|
|---12---------------------------------12---|--13------------------13----|
|-------------------------------------------|----------------------------|

|-----------------------------12-----------|---12-----------10---------|
|--9---------------------------------------|----8------------8---------|
|--9---------------------9-----------------|---------------------------|
|-11---------------11----------------11----|---------------------10----|
|------------------------------------------|---------------------------|
|------------------------------------------|---------------------------|
|--9---------------------------------------|----8----------------------|
|------------------------------------------|---------------------------|

         (Repeat previous 4 bars)
|------------|-----------------|------------------|------------------|
|------------|-----------------|------------------|-----------------.|
|------------|-----------------|------------------|------------------|
|------------|----------------'//.----------------|------------------|
|------------|-----------------|------------------|------------------|
|------------|-----------------|------------------|-----------------.|
|------------|-----------------|------------------|------------------|
Pre-Chorus

|------------------|---------------|---------------|---------------|
|.-----------------|---------------|---------------|---------------|
|--13--------------|--14-----------|--16-----------|--14-----------|
|--X---------------|--X------------|--X------------|--X------------|
|--11--------------|--12-----------|--14-----------|--12-----------|
|.-0---------------|--0------------|--0------------|--0------------|
|------------------|---------------|---------------|---------------|
                                                        (Repeat Previous bar)
|-------------------|--------------------------|---------------|--------|
|.------------------|--------------------------|---------------|-------.|
|--13--14--13--13---|-13--14--13--13--13--11---|-13--14--12--13|---'//.-|
|-------------------|--------------------------|---------------|--------|
|-------------------|--------------------------|---------------|--------|
|.------------------|--------------------------|---------------|-------.|
|-------------------|--------------------------|---------------|--------|
Chorus
                                                             2
|--0----------------|-------------------------|--------------|--------------|
|--0----------------|-------------------------|--------------|--------------|
|--8---8------------|-------------------------|--------------|--------------|
|--9---9------X--X--|--8---------9---9---7----|------------'//.-------------|
|--9---9------X--X--|--9--------10--10---8----|--------------|--------------|
|--7---7------X--X--|--9--------10--10---8----|--------------|--------------|
|--0---0------------|--7---------8---8---6----|--------------|--------------|
                                                 (2nd time) skip to Interlude
        2                                         (3rd time) skip to Outro
|-------|--------|--0---------------0---|--------------------------|
|-------|--------|--0---------------0---|--------------------------|
|-------|--------|--8-----8---------8---|--------------------------|
|------'//.------|--9-----9---------9---|--8----8----9---9---7-----|
|-------|--------|--9-----9---------9---|--9----9---10--10---8-----|
|-------|--------|--7-----7---------7---|--9----9---10--10---8-----|
|-------|--------|--0-----0---------0---|--7----7----8---8---6-----|

|---------------------|-----------------------------|--------------------|
|---------------------|-----------------------------|--------------------|
|--14-13-----14--14---|--13-14-16-24-1314-13-13-----|--------------------|
|---------14----------|--------------------------14-|-14--12-12----------|
|---------------------|-----------------------------|-------------14-14--|
|---------------------|-----------------------------|--------------------|
|---------------------|-----------------------------|--------------------|

|--------------------------|
|--------------------------|
|--------------------------|
|--------------------------|
|-14-12-11-11-12-11--------|
|-------------------12-10--|
|--------------------------|
2nd Verse

|----7-------------|-7--------------|-7---------------|-7-----------------|
|----5-------------|-5--------------|-5---------------|-5-----------------|
|----4-------------|-5--------------|-6---------------|-5-----------------|
|------------------|----------------|-6---------------|-5-----------------|
|------------------|----------------|-----------------|-------------------|
|---12----12-------|----------------|-----------------|-------------------|
|------------------|----------------|-----------------|-------------------|

|----------0------------0----|------------|------------|-------------|
|----12----------12----------|------------|------------|-------------|
|----------------------------|------------|------------|-------------|
|----------------------------|----'/.-----|-----'/.----|---'/.-------|
|----------------------------|------------|------------|-------------|
|----------------------------|------------|------------|-------------|
|----------------------------|------------|------------|-------------|
Interlude

|--------------------------------------------|--------|-------|--------|
|.-------------------------------------------|--------|-------|--------|
|--------------------------------------------|--------|-------|--------|
|--------------------------------------------|---'/.--|--'/.--|--'/.---|
|---------------------------------5----------|--------|-------|--------|
|.--------7------7---------7---7-----7--6--5-|--------|-------|--------|
|---0--0-------------0--0--------------------|--------|-------|--------|

                                      (2nd time) go back to Chorus
|------|------|------|--------------------------------------|
|------|------|------|-------------------------------------.|
|------|------|------|--------------------------------------|
|-'/.--|-'/.--|-'/.--|--------------------------------------|
|------|------|------|--------------------------------------|
|------|------|------|-------7--7-----------7------7-------.|
|------|------|------|-0---0-------0------0-----------0-----|
Outro

|--------------------|-----|-----|---------------------|------------------|
|.-------------------|-----|-----|--------------------.|------------------|
|--------------------|-----|-----|---------------------|------------------|
|-9---10-10-11---12--|-'/.-|-'/.-|-9---10-10--7----7---|--7---------------|
|.9---10-10-11---12--|-----|-----|-9---10-10--7----7---|--8---------------|
|-7----8--8--9---10--|-----|-----|-7----8--8--5----5--.|--8---------------|
|-7----8--8--9---10--|-----|-----|-7----8--8--5----5---|--6---------------|

Sorry about anything that isn't right but this is what I got from it
Tap to rate this tab
# A B C D E F G H I J K L M N O P Q R S T U V W X Y Z