Song name
# A B C D E F G H I J K L M N O P Q R S T U V W X Y Z

Korn - Kunt tab

-----------------------------------------------------------------------------
			     Kunt - Korn
-----------------------------------------------------------------------------
Tabbed by:

Tuning: 7 String Guitar tuned 1 whole-step down (low to high): A-D-G-C-F-A-d

Intro/Chorus/Outro

d|------------------------------------------|
A|------------------------------------------|
F|------------------------------------------|
C|------------------------------------------|
G|-11-\-10--10--9--8--8--9-\-8--8--8--------|
D|-10-\-9---9---8--7--7--8-\-7--7--7--------|
A|------------------------------------------|

Verse(s) (played with Whammy Pedal)

d|--------------------------------------------------------------------------|
A|-12*----------12*-------12*---------12*-------12*---------12*-------12*---|
F|------x-x-x--------x-x-------x-x-x-------x-x-------x-x-x-------x-x--------|
C|--------------------------------------------------------------------------|
G|--------------------------------------------------------------------------|
D|--------------------------------------------------------------------------|
A|--------------------------------------------------------------------------|
pm      - - -        - -       - - -       - -       - - -       - -   

Verse(s) (continued)

d|--------------------|
A|-------12*----------|
F|x-x-x-------x-x-----|
C|--------------------|
G|--------------------|
D|--------------------|
A|--------------------|
pm- - -       - -

Pre-Chorus/Bridge B

d|------------------------------|
A|------------------------------|
F|------------------------------|
C|-6---7---8---9--10------------|
G|-4---7---6---7--9-------------|
D|-4---5---6---7--9-------------|
A|------------------------------|


Bridge A

d|-------------------------------------|
A|------13---------13------------------|
F|-x-x--16--x-x-x--16------------------|
C|-------------------------------------|
G|-------------------------------------|
D|-------------------------------------|
A|-------------------------------------|
pm:- -      - - - 



Intro (Clean)
Intro (Distortion)
Verse 
Pre-Chorus
Chorus
Verse
Pre-Chorus
Chorus
(Drum fill)
Bridge A
Bridge B
Chorus 
Outro



************************************

| pm  palm mute
| /   slide up
| \   slide down
| h   hammer-on
| p   pull-off
| ~   vibrato
| *   harmonic
| x   Mute note
| b   Bend
| pb  Pre-bend
| br  Bend release
| pbr Pre-bend release
| brb Bend release bend

************************************
Tap to rate this tab
 
# A B C D E F G H I J K L M N O P Q R S T U V W X Y Z