Guitaretab - guitar tabs
Song name
# A B C D E F G H I J K L M N O P Q R S T U V W X Y Z

Korn - Blind tab

email us @ - ors_kar@hotmail.com
           - bluecap54@hotmail.com


this has been played and recorded by Downkast 
(british shcool heavy metal band) 
this is the no.1 tab for this song for normal tuning.



BLIND
(tune bass AND guitar low E string down to D)
Intro Riff 1
guitar 1:               Bass:
E--0-0-0-0---           D---3----------
G--3-3-3-3---           A----2-------
B--1-1-1-1---	        D-3-----6--6--

guitar 2
D--0-2-0-3--        D--0-2-0-3-0-2-0-3
A--0-2-0-3-- THEN   A--0-2-0-3-0-2-0-3
D-----------	    D-----------------
    R U READY

Guitar 1:                      Guitar 2nd part (8th time):
D--0-2-0-3-0-2-0-3-6-6-6-6     D--0-0-0-3-0-2-0-3-6-6-6-6
A--0-2-0-3-0-2-0-3-6-6-6-6     A--0-0-0-3-0-2-0-3-6-6-6-6
D--0-2-0-3-0-2-0-3-6-6-6-6     D--0-0-0-3-0-2-0-3-6-6-6-6

Bass:                             
D---------------------------      
A---------------------------      
D--0-2-0-3-0-2-0-3-5-5-5-5-- 

Verse part 1            Verse part 2

Guitar:             
D--9-10-9-7-            D-8-8-8-8-11--8-8-9
A--7--8-7-5-            A-8-8-8-8-11--8-8-9 
D--7--8-7-5-            D-6-6-6-6-9---6-6-7


Guitar 1:                      Guitar 2nd part (5th and 8th time):
D--0-2-0-3-0-2-0-3-6-6-6-6     D--0-0-0-3-0-2-0-3-6-6-6-6
A--0-2-0-3-0-2-0-3-6-6-6-6     A--0-0-0-3-0-2-0-3-6-6-6-6
D--0-2-0-3-0-2-0-3-6-6-6-6     D--0-0-0-3-0-2-0-3-6-6-6-6


I can see , i can see ...
Guitar:                
D--0-6-6-0              
A--0-6-6-0              
D--0-6-6-0              


Guitar 1                         Guitar 2nd part (on 5th and 8th time:
D--0-2-0-3-0-2-0-3-6-6-6-6       D--0-0-0-3-0-2-0-3-6-6-6-6
A--0-2-0-3-0-2-0-3-6-6-6-6       A--0-0-0-3-0-2-0-3-6-6-6-6
D--0-2-0-3-0-2-0-3-6-6-6-6       D--0-0-0-3-0-2-0-3-6-6-6-6

End

Guitar:                        Bass
e--21-----21--------           D---------
G-------------15/12-           A---5---6-
B-------------------           D--5-5-6-6
[ Tab from: http://www.guitaretab.com/k/korn/22498.html ]
Related for Blind tab
×
Blind