Song name
# A B C D E F G H I J K L M N O P Q R S T U V W X Y Z

Korn - The Past tab

-------------------------------------------------------------------------------
			     The Past - Korn
-------------------------------------------------------------------------------
Tabbed by:FRr3AkOnALEaSh
Email:smokin_05@hotmail.com

Tuning:7 String Standard Tuning Down Half A Step (A-D-G-C-F-a-d)

"The Past" is a song from there new album Korn III coming this july. A 2.08 minute 
demo has officially been released and i have attempted to try and figure it out.
Apart from the intro, the majority of this sounds correct. Search/download the song
for timing, good luck!

Intro, Guitar 1 (Repeat 4x)
D|---------------------------------------------------------------------------|
A|---------------------------------------------------------------------------|
F|---------------------------------------------------------------------------|
C|------0-----1-----0--------------------------------------------------------|
G|----0-----1-----0----------------------------------------------------------|
D|--0-----0-----0------------------------------------------------------------|
A|---------------------------------------------------------------------------|

Guitar 2 (Repeat x3)
D|---------------------------------------------------------------------------|
A|---------------------------------------------------------------------------|
F|---------------------------------------------------------------------------|
C|---------------------------------------------------------------------------|
G|--22--22--22---2-2~--------------------------------------------------------|
D|--00--00--00---0-0~--------------------------------------------------------|
A|---------------------------------------------------------------------------|
    ..  ..  ..   .
D|---------------------------------------------------------------------------|
A|---------------------------------------------------------------------------|
F|---------------------------------------------------------------------------|
C|---------------------------------------------------------------------------|
G|--22--22---2222------------------------------------------------------------|
D|--00--00---0000------------------------------------------------------------|
A|---------------------------------------------------------------------------|
    ..  ..   ....
D|--------------------------|------------------------------------------------|
A|--------------------------|------------------------------------------------|
F|--------------------------|------------------------------------------------|
C|--------------------------|------------------------------------------------|
G|--7/8\7----------5-55--44-|--7/8\7----------5-55---------------------------|
D|--5/6\5---5-55---3-33--22-|--5/6\5---5-55---3-33---66----------------------|
A|----------3-33------------|----------3-33----------44----------------------|

D|---------------------------------------------------------------------------|
A|---------------------------------------------------------------------------|
F|---------------------------------------------------------------------------|
C|---------------------------------------------------------------------------|
G|--7/8\7---4/5\4---7/8\7---4/5\4--------------------------------------------|
D|--5/6\5---2/3\2---5/6\5---2/3\2--------------------------------------------|
A|---------------------------------------------------------------------------|

D|---------------------------------------------------------------------------|
A|---------------------------------------------------------------------------|
F|---------------------------------------------------------------------------|
C|--7-7--7-8-7-8\5-5--5-7-5-7\4-4--4-5-4-5\3-3--2-2-2------------------------|
G|---------------------------------------------------------------------------|
D|---------------------------------------------------------------------------|
A|---------------------------------------------------------------------------|
Tap to rate this tab
 
# A B C D E F G H I J K L M N O P Q R S T U V W X Y Z