Song name
# A B C D E F G H I J K L M N O P Q R S T U V W X Y Z

Korn - Eaten Up Inside tab

-------------------------------------------------------------------------------
			     Eaten Up Inside - Korn
-------------------------------------------------------------------------------
Tabbed by: FRr3AkOnALEaSh
Email: smokin_05@hotmail.com

Tuning: A D G C F a d

Intro
D|---------------------------------------------------------------------------|
A|---------------------------------------------------------------------------|
F|---------------------------------------------------------------------------|
C|---------------------------------------------------------------------------|
G|--2---2---2-2-2---2-2-2---5------------------------------------------------|
D|--0---0---0-0-0---0-0-0---3--6---------------------------------------------|
A|-----------------------------4---------------------------------------------|

D|---------------------------------------------------------------------------|
A|---------------------------------------------------------------------------|
F|---------------------------------------------------------------------------|
C|---------------------------------------------------------------------------|
G|--2---2---2-2-2---3-3-3---4-4-4--------------------------------------------|
D|--0---0---0-0-0---1-1-1---2-2-2--------------------------------------------|
A|---------------------------------------------------------------------------|

Verse
D|--------------------------10-6---------------------------------------------|
A|--------------------------x--x---------------------------------------------|
F|--------------------------7--3---------------------------------------------|
C|---------------------------------------------------------------------------|
G|--2---2---2-2-2---3-3-3----------------------------------------------------|
D|--0---0---0-0-0---1-1-1----------------------------------------------------|
A|---------------------------------------------------------------------------|

D|---------------------------------------------------------------------------|
A|---------------------------------------------------------------------------|
F|---------------------------------------------------------------------------|
C|---------------------------------------------------------------------------|
G|--2---2---2-2-2---3-3-3---4-4-4--------------------------------------------|
D|--0---0---0-0-0---1-1-1---2-2-2--------------------------------------------|
A|---------------------------------------------------------------------------|

Pre-Chorus
D|---------------------------------------------------------------------------|
A|---------------------------------------------------------------------------|
F|--5---5---5---5---5---5---5---5---8---8---8---8---9---9---11--11-----------|
C|--x---x---x---x---x---x---x---x---x---x---x---x---x---x---x---x------------|
G|--3---3---3---3---3---3---3---3---6---6---6---6---7---7---9---9------------|
D|---------------------------------------------------------------------------|
A|---------------------------------------------------------------------------|

D|---------------------------------------------------------------------------|
A|---------------------------------------------------------------------------|
F|--5---5---5---5---5---5---5---5---8---8---8---8----------------------------|
C|--x---x---x---x---x---x---x---x---x---x---x---x----------------------------|
G|--3---3---3---3---3---3---3---3---6---6---6---6----------------------------|
D|---------------------------------------------------------------------------|
A|---------------------------------------------------------------------------|

Chorus
D|---------------------------------------------------------------------------|
A|---------------------------------------------------------------------------|
F|---------------------------------------------------------------------------|
C|---------------------------------------------------------------------------|
G|---------------------------------------------------------------------------|
D|---------------------------------------------------------------------------|
A|--2-1-0---2-0-2-5---2-0---2-0-2-5---2-0---2-0-2-5---2-1---1-0--------------|

D|---------------------------------------------------------------------------|
A|---------------------------------------------------------------------------|
F|---------------------------------------------------------------------------|
C|---------------------------------------------------------------------------|
G|---------------------------------------------------------------------------|
D|---------------------------------------------------------------------------|
A|--2-1-0---2-0-2-5---2-0---2-0-2-5---2-0---2-0-2-5---2-1---0-0-0------------|

D|---------------------------------------------------------------------------|
A|---------------------------------------------------------------------------|
F|---------------------------------------------------------------------------|
C|--------------8\7---7\6---6\5--5-------------------------------------------|
G|--8\7---7\6---6\5---5\6---4\3--3-------------------------------------------|
D|--6\5---5\4----------------------------------------------------------------|
A|---------------------------------------------------------------------------|

Bridge
D|---------------------------------------------------------------------------|
A|---------------------------------------------------------------------------|
F|---------------------------------------------------------------------------|
C|---------------------------------------------------------------------------|
G|---------------------------------------------------------------------------|
D|---------------------------------------------------------------------------|
A|--2-0-2-2-2-2---0-2-0-2-2-2-2----------------------------------------------|

D|---------------------------------------------------------------------------|
A|---------------------------------------------------------------------------|
F|---------------------------------------------------------------------------|
C|---------------------------------------------------------------------------|
G|---------------------------------------------------------------------------|
D|---------------------------------------------------------------------------|
A|--2-0-2-2-2-2---0-2-0-2-2-2-2---0-2-0-2-2-2-2------------------------------|

(Note: After playing this part, repeat the whole bridge once again)
D|---------------------------------------------------------------------------|
A|---------------------------------------------------------------------------|
F|---------------------------------------------------------------------------|
C|--8---8---7---6------------------------------------------------------------|
G|--x---x---x---x------------------------------------------------------------|
D|--6---6---5---4------------------------------------------------------------|
A|---------------------------------------------------------------------------|

Outro
D|---------------------------------------------------------------------------|
A|---------------------------------------------------------------------------|
F|---------------------------------------------------------------------------|
C|--------------8\7---7\6---6\5--5-------------------------------------------|
G|--8\7---7\6---6\5---5\6---4\3--3-------------------------------------------|
D|--6\5---5\4----------------------------------------------------------------|
A|---------------------------------------------------------------------------|

D|---------------------------------------------------------------------------|
A|---------------------------------------------------------------------------|
F|---------------------------------------------------------------------------|
C|--7\6\5--------------------------------------------------------------------|
G|--5\4\3--------------------------------------------------------------------|
D|---------------------------------------------------------------------------|
A|---------------------------------------------------------------------------|

Well there you have it, a very accurate tab. This is so far my second tab
submission all learned by ear. I couldnt make out the very ending of this
song with all the fuzzy effects. I'm pretty sure its just an open riff
of the D string, but cant be sure. If you guys have any problems or
corrections, please feel free to email me (Email address at top of page)

Peace!

************************************

| /   slide up
| \   slide down
| h   hammer-on
| p   pull-off
| ~   vibrato
| +   harmonic
| x   Mute note
| b   Bend
| pb  Pre-bend
| br  Bend release
| pbr Pre-bend release
| brb Bend release bend

************************************
Tap to rate this tab
 
# A B C D E F G H I J K L M N O P Q R S T U V W X Y Z