Song name
# A B C D E F G H I J K L M N O P Q R S T U V W X Y Z

Korn - The Past tab

-------------------------------------------------------------------------------
			     The Past - Korn
-------------------------------------------------------------------------------
Tabbed by: FRr3AkOnALEaSh
Email: smokin_05@hotmail.com

Tuning: A-D-G-C-F-A-D (Low to High)

Intro
D|----------------------------|-----------------------------------------------|
A|----------------------------|-----------------------------------------------|
F|----------------------------|-----------------------------------------------|
C|--0-1-2--0-1-3--------------|--0-1-2----------------------------------------|
G|----------------------------|-----------------------------------------------|
D|----------------------------|-----------------------------------------------|
A|----------------------------|-----------------------------------------------|

D|----------------------------|-----------------------------------------------|
A|----------------------------|-----------------------------------------------|
F|----------------------------|-----------------------------------------------|
C|----------------------------|-----------------------------------------------|
G|--8/9\8---------5-5-5--4-4--|--7/8\7---------5-5-5--------------------------|
D|--5/6\5--5-5-5--3-3-3--2-2--|--5/6\5--5-5-5--3-3-3--6-6---------------------|
A|---------3-3-3--------------|---------3-3-3---------4-4---------------------|

D|----------------------------|-----------------------------------------------|
A|----------------------------|-----------------------------------------------|
F|----------------------------|-----------------------------------------------|
C|----------------------------|-----------------------------------------------|
G|--7/8\7---------5-5-5--4-4--|--7/8\7--4/5\4--7/8\7--4/5\4-------------------|
D|--5/6\5--5-5-5--3-3-3--2-2--|--5/6\5--2/3\2--5/6\5--2/3\2-------------------|
A|---------3-3-3--------------|-----------------------------------------------|

Pre-Verse
D|----------------------------------------------------------------------------|
A|----------------------------------------------------------------------------|
F|----------------------------------------------------------------------------|
C|--19-19--19h20p19\17-17--17h19p17\16-16--16h17p16\15~--14~------------------|
G|----------------------------------------------------------------------------|
D|----------------------------------------------------------------------------|
A|----------------------------------------------------------------------------|

Chorus
D|----------------------------|-----------------------------------------------|
A|----------------------------|-----------------------------------------------|
F|----------------------------|-----------------------------------------------|
C|----------------------------|-----------------------------------------------|
G|--8/9\8---------5-5-5--4-4--|--7/8\7---------5-5-5--------------------------|
D|--5/6\5--5-5-5--3-3-3--2-2--|--5/6\5--5-5-5--3-3-3--6-6---------------------|
A|---------3-3-3--------------|---------3-3-3---------4-4---------------------|

D|----------------------------|-----------------------------------------------|
A|----------------------------|-----------------------------------------------|
F|----------------------------|-----------------------------------------------|
C|----------------------------|-----------------------------------------------|
G|--7/8\7---------5-5-5--4-4--|--7/8\7--4/5\4--7/8\7--4/5\4-------------------|
D|--5/6\5--5-5-5--3-3-3--2-2--|--5/6\5--2/3\2--5/6\5--2/3\2-------------------|
A|---------3-3-3--------------|-----------------------------------------------|

Pre-Verse 2
D|----------------------------|-----------------------------------------------|
A|----------------------------|-----------------------------------------------|
F|----------------------------|-----------------------------------------------|
C|--12~--14~--10~--12~--------|--12~--14~--10~--------------------------------|
G|----------------------12~---|-----------------------------------------------|
D|----------------------------|-----------------------------------------------|
A|----------------------------|-----------------------------------------------|

Verse 2
D|--17-17--17h18p17\15-15--15h17p15\14-14--14h15p14\13~--12~------------------|
A|----------------------------------------------------------------------------|
F|----------------------------------------------------------------------------|
C|----------------------------------------------------------------------------|
G|----------------------------------------------------------------------------|
D|----------------------------------------------------------------------------|
A|----------------------------------------------------------------------------|

Pre-Chorus (Then back up to the main Chorus)
D|----------------------------------------------------------------------------|
A|----------------------------------------------------------------------------|
F|--7777----------------------------------------------------------------------|
C|--7777----------------------------------------------------------------------|
G|--5555----------------------------------------------------------------------|
D|----------------------------------------------------------------------------|
A|----------------------------------------------------------------------------|

Breakdown
D|----------------------------|-----------------------------------------------|
A|--15-16-17---15-16-18-------|--15-16-17-------------------------------------|
F|----------------------------|-----------------------------------------------|
C|----------------------------|-----------------------------------------------|
G|----------------------------|-----------------------------------------------|
D|----------------------------|-----------------------------------------------|
A|----------------------------|-----------------------------------------------|

D|----------------------------|-----------------------------------------------|
A|----------------------------|-----------------------------------------------|
F|----------------------------|-----------------------------------------------|
C|----------------------------|-----------------------------------------------|
G|-----77---77---77-77--------|-----66---66---66-66---------------------------|
D|--55-55-5-55-5-55-55--------|--44-44-4-44-4-44-44---------------------------|
A|----------------------------|-----------------------------------------------|
    ..    .    .                 ..    .    .  
D|----------------------------|-----------------------------------------------|
A|----------------------------|-----------------------------------------------|
F|----------------------------|-----------------------------------------------|
C|----------------------------|-----------------------------------------------|
G|-----55---55---55-55--------|-----44---44---44-44---------------------------|
D|--33-33-3-33-3-33-33--------|--22-22-2-22-2-22-22---------------------------|
A|----------------------------|-----------------------------------------------|
    ..    .    .                 ..    .    .
D|----------------------------------------------------------------------------|
A|----------------------------------------------------------------------------|
F|----------------------------------------------------------------------------|
C|----------------------------------------------------------------------------|
G|--7-7-7-7-7-7-7-7---7-7-7-7^-7----------------------------------------------|
D|----------------------------------------------------------------------------|
A|----------------------------------------------------------------------------|
 
D|----------------------------------------------------------------------------|
A|----------------------------------------------------------------------------|
F|----------------------------------------------------------------------------|
C|----------------------------------------------------------------------------|
G|--12-12-12-12-12-12-12-12-12-12-12-12-12-12-12-12---------------------------|
D|----------------------------------------------------------------------------|
A|----------------------------------------------------------------------------|

D|----------------------------------------------------------------------------|
A|----------------------------------------------------------------------------|
F|----------------------------------------------------------------------------|
C|----------------------------------------------------------------------------|
G|--11-11-11-11-11-11-11-11-11-11-11-11-11-11-11-11---------------------------|
D|----------------------------------------------------------------------------|
A|----------------------------------------------------------------------------|

D|----------------------------------------------------------------------------|
A|----------------------------------------------------------------------------|
F|----------------------------------------------------------------------------|
C|----------------------------------------------------------------------------|
G|--10-10-10-10-10-10-10-10-10-10-10-10-10-10-10-10---------------------------|
D|----------------------------------------------------------------------------|
A|----------------------------------------------------------------------------|

D|----------------------------------------------------------------------------|
A|----------------------------------------------------------------------------|
F|----------------------------------------------------------------------------|
C|----------------------------------------------------------------------------|
G|--9-9-9-9-9-9-9-9-9-9-9-9-9-9-9-9-------------------------------------------|
D|----------------------------------------------------------------------------|
A|----------------------------------------------------------------------------|

Outro (After playing the finishing chorus)
D|----------------------------|-----------------------------------------------|
A|----------------------------|-----------------------------------------------|
F|----------------------------|--15-14-14---15-14\12~-------------------------|
C|-----------12---------------|-----------------------------------------------|
G|--7---10---10---------------|-----------------------------------------------|
D|--5---8---------------------|-----------------------------------------------|
A|----------------------------|-----------------------------------------------|

There you have it boys and girls, my full tab out of The Past. Sorry as again
if the structrure is a bit messy, just work out the structure by listening to
the song itself. if you have any questions or corrections, please leave a 
comment or email me at smokin_05@hotmail.com

Peace ^.^!!!

************************************

| .   palm mute
| /   slide up
| \   slide down
| h   hammer-on
| p   pull-off
| ~   vibrato
| +   harmonic
| x   Mute note
| b   Bend
| pb  Pre-bend
| br  Bend release
| pbr Pre-bend release
| brb Bend release bend

************************************
Tap to rate this tab
 
# A B C D E F G H I J K L M N O P Q R S T U V W X Y Z