Korn - Oildale Leave Me Alone tab

KoRn - Oildale (Leave Me Alone) - KoRn III Remember Who You Are

Tabbed by Elvisz (elvisz84@yahoo.com)
Tuning : 7 String Tuned Low to High (A D G C F a d)

Vocal: Jonathan Houseman Davis
Guitar: James Randal Shaffer 'Munky'
Bass: Reginald Arvizu 'Fieldy'
Drums: Ray Luzier

Intro:
d|---------------------------------------|
a|---------------------------------------|
F|---------------------------------------|
C|---------------------------------------|
G|---------------------------------------|
D|---------------------------------------|
A|-0h33-3[3]--0h33-3[3]--0h33-3[3]--43-1-|

d|---------------------------------------|
a|---------------------------------------|
F|---------------------------------------|
C|---------------------------------------|
G|---------------------------------------|
D|---------------------------------------|
A|-0h33-3[3]--0h33-3[3]--0h33-3[3]--43-1-|

d|--------------------------------------------|
a|--------------------------------------------|
F|--------------------------------------------|
C|--------------------------------------------|
G|--------------------------------------------|
D|--------------------------------------------|
A|-3h66-6[6]--3h66-6[6]--3h55-5[5]--3h55-5[5]-|

d|---------------------------------------|
a|---------------------------------------|
F|---------------------------------------|
C|---------------------------------------|
G|---------------------------------------|
D|---------------------------------------|
A|-0h33-3[3]--0h33-3[3]--0h33-3[3]--43-1-|

d|--------------------------------------------|
a|--------------------------------------------|
F|--------------------------------------------|
C|--------------------------------------------|
G|--------------------------------------------|
D|--------------------------------------------|
A|-3h66-6[6]--3h66-6[6]--3h55-5[5]--3h55-5[5]-|

d|---------------------------------------|
a|---------------------------------------|
F|---------------------------------------|
C|---------------------------------------|
G|---------------------------------------|
D|---------------------------------------|
A|-0h33-3[3]--0h33-3[3]--0h33-3[3]--43-1-|



Verse:
(guitar1)
d|------------------------------|
a|------------------------------|
F|------------------------------|
C|------------------------------|
G|------------------------------|
D|-5~~~~~~~~~~~~~-3~~~~~~~~~~~~-|
A|------------------------------|

(guitar2)
d|------------------------------|
a|------------------------------|
F|------------------------------|
C|-12~~~~~~~~~~~~~~~~~~~~~~~~~~-|
G|------------------------------|
D|------------------------------|
A|------------------------------|



(guitar1)
d|------------------------------|
a|------------------------------|
F|------------------------------|
C|------------------------------|
G|------------------------------|
D|-5~~~~~~~~~~~~~-3~~~~~~~~~~~~-|
A|------------------------------|

(guitar2)
d|------------------------------|
a|----------------15~~~~~~~~~~~-|
F|------------------------------|
C|-12~~~~~~~~~~~~~--------------|
G|------------------------------|
D|------------------------------|
A|------------------------------|



(guitar1)
d|------------------------------|
a|------------------------------|
F|------------------------------|
C|------------------------------|
G|------------------------------|
D|-5~~~~~~~~~~~~~-3~~~~~~~~~~~~-|
A|------------------------------|

(guitar2)
d|------------------------------|
a|-17~~~~~~~~~\\15~~~~~~~~~~~~~-|
F|------------------------------|
C|------------------------------|
G|------------------------------|
D|------------------------------|
A|------------------------------|



(guitar1)
d|----------------|
a|----------------|
F|----------------|
C|----------------|
G|----------------|
D|-5~~~~~~~~~~~~~-|
A|----------------|

(guitar2)
d|----------------|
a|----------------|
F|----------------|
C|-12~~~~~~~~~~~~-|
G|----------------|
D|----------------|
A|----------------|



Fill1:(fade in)
d|-------------------------------------------------|
a|-------------------------------------------------|
F|-------------------------------------------------|
C|-------------------------------------------------|
G|-------------------------------------------------|
D|-------------------------------------------------|
A|-8r7r6-8r7r6-8r7r6-8r7r6-7r6r5-7r6r5-7r6r5-7r6r5-|



Pre-Chorus:
d|-------------------------------------------------|
a|-------------------------------------------------|
F|-------------------------------------------------|
C|-------------------------------------------------|
G|-------------------------------------------------|
D|-------------------------------------------------|
A|-8r7r6-8r7r6-8r7r6-8r7r6-7r6r5-7r6r5-7r6r5-7r6r5-|



Chorus:
(guitar1)
d|---------------------------------------|
a|---------------------------------------|
F|---------------------------------------|
C|---------------------------------------|
G|---------------------------------------|
D|---------------------------------------|
A|-0h33-3[3]--0h33-3[3]--0h33-3[3]--43-1-|

d|---------------------------------------|
a|---------------------------------------|
F|---------------------------------------|
C|---------------------------------------|
G|---------------------------------------|
D|---------------------------------------|
A|-0h33-3[3]--0h33-3[3]--0h33-3[3]--43-1-|

d|--------------------------------------------|
a|--------------------------------------------|
F|--------------------------------------------|
C|--------------------------------------------|
G|--------------------------------------------|
D|--------------------------------------------|
A|-3h66-6[6]--3h66-6[6]--3h55-5[5]--3h55-5[5]-|

d|---------------------------------------|
a|---------------------------------------|
F|---------------------------------------|
C|---------------------------------------|
G|---------------------------------------|
D|---------------------------------------|
A|-0h33-3[3]--0h33-3[3]--0h33-3[3]--43-1-|

d|----------------------------------|
a|----------------------------------|
F|----------------------------------|
C|----------------------------------|
G|-8~~-8~~-7~~-4~~--8~~-8~~-7~~-4~~-|
D|-x---x---x---x----x---x---x---x---|
A|-6~~-6~~-5~~-2~~--6~~-6~~-5~~-2~~-|

d|---------------------------------------|
a|---------------------------------------|
F|---------------------------------------|
C|---------------------------------------|
G|---------------------------------------|
D|---------------------------------------|
A|-0h33-3[3]--0h33-3[3]--0h33-3[3]--43-1-|




(guitar2)
d|---------------------------------------|
a|---------------------------------------|
F|-19191919191919\\1212121212\1111111111-|
C|---------------------------------------|
G|---------------------------------------|
D|---------------------------------------|
A|---------------------------------------|

d|---------------------------------------|
a|---------------------------------------|
F|-19191919191919\\1212121212\1111111111-|
C|---------------------------------------|
G|---------------------------------------|
D|---------------------------------------|
A|---------------------------------------|

d|--------------------------------------|
a|--------------------------------------|
F|-10~~-10~~-9~~-6~~--10~~-10~~-9~~-6~~-|
C|-xx---xx---x---x----xx---xx---x---x---|
G|- 8~~- 8~~-7~~-4~~-- 8~~- 8~~-7~~-4~~-|
D|--------------------------------------|
A|--------------------------------------|

d|---------------------------------------|
a|---------------------------------------|
F|-19191919191919\\1212121212\1111111111-|
C|---------------------------------------|
G|---------------------------------------|
D|---------------------------------------|
A|---------------------------------------|



Verse:
d|------------------------------|
a|------------------------------|
F|------------------------------|
C|------------------------------|
G|------------------------------|
D|-5~~~~~~~~~~~~~-3~~~~~~~~~~~~-|
A|------------------------------|



Fill1:(fade in)
d|-------------------------------------------------|
a|-------------------------------------------------|
F|-------------------------------------------------|
C|-------------------------------------------------|
G|-------------------------------------------------|
D|-------------------------------------------------|
A|-8r7r6-8r7r6-8r7r6-8r7r6-7r6r5-7r6r5-7r6r5-7r6r5-|



Pre-Chorus:
d|-------------------------------------------------|
a|-------------------------------------------------|
F|-------------------------------------------------|
C|-------------------------------------------------|
G|-------------------------------------------------|
D|-------------------------------------------------|
A|-8r7r6-8r7r6-8r7r6-8r7r6-7r6r5-7r6r5-7r6r5-7r6r5-|



Chorus:
(guitar1)
d|---------------------------------------|
a|---------------------------------------|
F|---------------------------------------|
C|---------------------------------------|
G|---------------------------------------|
D|---------------------------------------|
A|-0h33-3[3]--0h33-3[3]--0h33-3[3]--43-1-|

d|---------------------------------------|
a|---------------------------------------|
F|---------------------------------------|
C|---------------------------------------|
G|---------------------------------------|
D|---------------------------------------|
A|-0h33-3[3]--0h33-3[3]--0h33-3[3]--43-1-|

d|--------------------------------------------|
a|--------------------------------------------|
F|--------------------------------------------|
C|--------------------------------------------|
G|--------------------------------------------|
D|--------------------------------------------|
A|-3h66-6[6]--3h66-6[6]--3h55-5[5]--3h55-5[5]-|

d|---------------------------------------|
a|---------------------------------------|
F|---------------------------------------|
C|---------------------------------------|
G|---------------------------------------|
D|---------------------------------------|
A|-0h33-3[3]--0h33-3[3]--0h33-3[3]--43-1-|

d|----------------------------------|
a|----------------------------------|
F|----------------------------------|
C|----------------------------------|
G|-8~~-8~~-7~~-4~~--8~~-8~~-7~~-4~~-|
D|-x---x---x---x----x---x---x---x---|
A|-6~~-6~~-5~~-2~~--6~~-6~~-5~~-2~~-|

d|---------------------------------------|
a|---------------------------------------|
F|---------------------------------------|
C|---------------------------------------|
G|---------------------------------------|
D|---------------------------------------|
A|-0h33-3[3]--0h33-3[3]--0h33-3[3]--43-1-|




(guitar2)
d|---------------------------------------|
a|---------------------------------------|
F|-19191919191919\\1212121212\1111111111-|
C|---------------------------------------|
G|---------------------------------------|
D|---------------------------------------|
A|---------------------------------------|

d|---------------------------------------|
a|---------------------------------------|
F|-19191919191919\\1212121212\1111111111-|
C|---------------------------------------|
G|---------------------------------------|
D|---------------------------------------|
A|---------------------------------------|

d|--------------------------------------|
a|--------------------------------------|
F|-10~~-10~~-9~~-6~~--10~~-10~~-9~~-6~~-|
C|-xx---xx---x---x----xx---xx---x---x---|
G|- 8~~- 8~~-7~~-4~~-- 8~~- 8~~-7~~-4~~-|
D|--------------------------------------|
A|--------------------------------------|

d|---------------------------------------|
a|---------------------------------------|
F|-19191919191919\\1212121212\1111111111-|
C|---------------------------------------|
G|---------------------------------------|
D|---------------------------------------|
A|---------------------------------------|



Bridge1:
(guitar1)
d|----------------------------------------|
a|----------------------------------------|
F|----------------------------------------|
C|----------------------------------------|
G|----------------------------------------|
D|---5~~~------5~~~------5~~~-------4~~~~-|
A|-3-3~~~----3-3~~~----3-3~~~-----2-2~~~~-|
   .         .         .          .         . palm mute


(guitar2)
d|-----------------------------------------------------------------|
a|-----------------------------------------------------------18----|
F|-777777779999999777777777999999997777777779999999977777777-20^^^-|
C|-xxxxxxxxxxxxxxxxxxxxxxxxxxxxxxxxxxxxxxxxxxxxxxxxxxxxxxxxx-------|
G|-555555557777777555555555777777775555555557777777755555555-------|
D|-----------------------------------------------------------------|
A|-----------------------------------------------------------------|
          


Bridge2:
(guitar1)
d|----------------------------------------------|
a|----------------------------------------------|
F|----------------------------------------------|
C|----------------------------------------------|
G|----------------------------------------------|
D|----------------------------------------------|
A|-33333333555555556666666622222222222222226622-|

d|----------------------------------------------|
a|----------------------------------------------|
F|----------------------------------------------|
C|----------------------------------------------|
G|----------------------------------------------|
D|----------------------------5~~~~~---4~~~~~~~-|
A|-333333335555555566666666-3-3~~~~~-2-2~~~~~~~-|
                            .        .            .palm mute


(guitar2)
d|----------------------------------------------------------|
a|----------------------------------------------------------|
F|-222222222121212119191919---------------------------------|
C|-------------------------22222222202020201919191920202020-|
G|----------------------------------------------------------|
D|----------------------------------------------------------|
A|----------------------------------------------------------|

d|----------------------------------------------------------|
a|----------------------------------------------------------|
F|-222222222122222222211919---------------------------------|
C|-------------------------22222222202020201919191920202020-|
G|----------------------------------------------------------|
D|----------------------------------------------------------|
A|----------------------------------------------------------|

d|-------------------------------------------------|
a|-------------------------------------------------|
F|-19-21-19-21-19-21-19-21-19-20-19-20-19-20-19-20-|
C|-------------------------------------------------|
G|-------------------------------------------------|
D|-------------------------------------------------|
A|-------------------------------------------------|



Bridge3:
(guitar1)
d|---------------------------------------|
a|---------------------------------------|
F|---------------------------------------|
C|---------------------------------------|
G|---------------------------------------|
D|---------------------------------------|
A|-0h33-3[3]--0h33-3[3]--0h33-3[3]--43-1-|

d|---------------------------------------|
a|---------------------------------------|
F|---------------------------------------|
C|---------------------------------------|
G|---------------------------------------|
D|---------------------------------------|
A|-0h33-3[3]--0h33-3[3]--0h33-3[3]--43-1-|

(guitar2)
d|--------------------------------------|
a|--------------------------------------|
F|--------------------------------------|
C|--------------------------------------|
G|--------------------------------------|
D|--------------------------------------|
A|------------33-3------333-3-3-----3-3-|
              .. .      ... . .     . .   .palm mute



Chorus:
(guitar1)
d|---------------------------------------|
a|---------------------------------------|
F|---------------------------------------|
C|---------------------------------------|
G|---------------------------------------|
D|---------------------------------------|
A|-0h33-3[3]--0h33-3[3]--0h33-3[3]--43-1-|

d|---------------------------------------|
a|---------------------------------------|
F|---------------------------------------|
C|---------------------------------------|
G|---------------------------------------|
D|---------------------------------------|
A|-0h33-3[3]--0h33-3[3]--0h33-3[3]--43-1-|

d|--------------------------------------------|
a|--------------------------------------------|
F|--------------------------------------------|
C|--------------------------------------------|
G|--------------------------------------------|
D|--------------------------------------------|
A|-3h66-6[6]--3h66-6[6]--3h55-5[5]--3h55-5[5]-|

d|---------------------------------------|
a|---------------------------------------|
F|---------------------------------------|
C|---------------------------------------|
G|---------------------------------------|
D|---------------------------------------|
A|-0h33-3[3]--0h33-3[3]--0h33-3[3]--43-1-|

d|----------------------------------|
a|----------------------------------|
F|----------------------------------|
C|----------------------------------|
G|-8~~-8~~-7~~-4~~--8~~-8~~-7~~-4~~-|
D|-x---x---x---x----x---x---x---x---|
A|-6~~-6~~-5~~-2~~--6~~-6~~-5~~-2~~-|

d|---------------------------------------|
a|---------------------------------------|
F|---------------------------------------|
C|---------------------------------------|
G|---------------------------------------|
D|---------------------------------------|
A|-0h33-3[3]--0h33-3[3]--0h33-3[3]--43-1-|




(guitar2)
d|---------------------------------------|
a|---------------------------------------|
F|-19191919191919\\1212121212\1111111111-|
C|---------------------------------------|
G|---------------------------------------|
D|---------------------------------------|
A|---------------------------------------|

d|---------------------------------------|
a|---------------------------------------|
F|-19191919191919\\1212121212\1111111111-|
C|---------------------------------------|
G|---------------------------------------|
D|---------------------------------------|
A|---------------------------------------|

d|--------------------------------------|
a|--------------------------------------|
F|-10~~-10~~-9~~-6~~--10~~-10~~-9~~-6~~-|
C|-xx---xx---x---x----xx---xx---x---x---|
G|- 8~~- 8~~-7~~-4~~-- 8~~- 8~~-7~~-4~~-|
D|--------------------------------------|
A|--------------------------------------|

d|---------------------------------------|
a|---------------------------------------|
F|-19191919191919\\1212121212\1111111111-|
C|---------------------------------------|
G|---------------------------------------|
D|---------------------------------------|
A|---------------------------------------|



Outro1:
d|-------------------|
a|-------------------|
F|-------------------|
C|-------------------|
G|-------------------|
D|-------------------|
A|-0h33-3[3]--43-111-|

d|---------------------------------------|
a|---------------------------------------|
F|---------------------------------------|
C|---------------------------------------|
G|---------------------------------------|
D|---------------------------------------|
A|-0h33-3[3]--0h33-3[3]--0h33-3[3]--43-1-|




Outro2:
(guitar1)
d|-------------------------------|
a|-------------------------------|
F|-------------------------------|
C|-------------------------------|
G|-4~-44-4-4-4-44-4-4-44-4-4-4-4-|
D|-x--xx-x-x-x-xx-x-x-xx-x-x-x-x-|
A|-2~-22-2-2-2-22-2-2-22-2-2-2-2-|
      ..       ..     ..       .  .palm mute

(guitar2)
d|-------------------------------|
a|-------------------------------|
F|-6--66-6-6-6-66-6-6-66-6-6-6-6-|
C|-x--xx-x-x-x-xx-x-x-xx-x-x-x-x-|
G|-4~-44-4-4-4-44-4-4-44-4-4-4-4-|
D|-------------------------------|
A|-------------------------------|
      ..       ..     ..       .  .palm mute



Outro3:
d|------------------------------------|
a|------------------------------------|
F|------------------------------------|
C|-7--------7--------7--------7-------|
G|----5--------5--------5--------5----|
D|-------9--------9--------9--------9-|
A|------------------------------------|

d|------------------------------------|
a|------------------------------------|
F|------------------------------------|
C|-7--------7--------7--------7-------|
G|----5--------5--------5--------5----|
D|-------7--------7--------7--------7-|
A|------------------------------------|
Tap to rate this tab
 
# A B C D E F G H I J K L M N O P Q R S T U V W X Y Z