Song name
# A B C D E F G H I J K L M N O P Q R S T U V W X Y Z

Korn - Let The Guilt Go tab

-------------------------------------------------------------------------------
			     Let The Guilt Go - Korn
-------------------------------------------------------------------------------
Tabbed by: FRr3AkOnALEaSh
Email: smokin_05@hotmail.com

Tuning: 7 String, A-D-G-C-F-A-D (Low to High)

Intro/Verse
D|------------|
A|------------|
F|------------|
C|------------|
G|------------|
D|-4444-555\3-|
A|-2222-333\1-| 

Pre-Chorus
D|------------------------------------------------|
A|------------------------------------------------|
F|------------------------------------------------|
C|------------------------------------------------|
G|------------------------------------------------|
D|------------------------------------------------|
A|-3--3--3--3--3--3--3--3--3--3--3--3--3--3--3--3-|
   .  .  .  .  .  .  .  .  .  .  .  .  .  .  .  .
Chorus
D|------------------------|
A|------------------------|
F|------------------------|
C|-7777--------------6666-|
G|-5555--6666--5555--4444-|
D|-------4444--3333-------|
A|------------------------|

D|--------------------|
A|--------------------|
F|-66666666/777777\55-|
C|-xxxxxxxx/xxxxxx\xx-|
G|-44444444/555555\33-|
D|--------------------|
A|--------------------|

Breakdown
D|-------------------------------|
A|-------------------------------|
F|-------------------------------|
C|-------------------------------|
G|-----8-------7-------5-------5-|
D|-----8-------7-------5-------5-|
A|-66-66---55-55---33-33---33-33-|
   .. .    .. .    .. .    .. .

(After this part, play the Pre & Main Chorus)
D|-------------|-----------||-------------|-----------|
A|-4--4--4--4--|-4---4---4-||-3--3--3--3--|-3---3---3-|
F|--5--5--5--5-|---5---5---||--4--4--4--4-|---4---4---|
C|-------------|-----------||-------------|-----------|
G|-------------|-----------||-------------|-----------|
D|-------------|-----------||-------------|-----------|
A|-------------|-----------||-------------|-----------|
   .. .. .. ..     .   .      .. .. .. ..     .   . 

If you guys have any problems or corrections, either email
me or leave a comment down below. If this helped you,
please rate this tab whatever you think it deserves.

Peace ^.^!!!

************************************

| .   palm-muted
| /   slide up
| \   slide down
| h   hammer-on
| p   pull-off
| ~   vibrato
| +   harmonic
| x   Mute note
| b   Bend
| pb  Pre-bend
| br  Bend release
| pbr Pre-bend release
| brb Bend release bend

************************************
Tap to rate this tab
 
# A B C D E F G H I J K L M N O P Q R S T U V W X Y Z