Korn - Inside Out tab

Korn - See You On The Other Side - Inside Out

Tabbed By: FRr3AkOnALEaSh (smokin_05@hotmail.com)
Tuning: 7 String Tuned Low to High (A D G C F a d)

Vocal: Jonathan Houseman Davis 'Hiv'
Guitar: James Randal Shaffer 'Munky'
Bass: Reginald Arvizu 'Fieldy
Drums: David Silveria

Riff 1 (Intro)(Guitar 1)
D|---------|-----------|
A|---------|-----------|
F|---------|-----------|
C|---------|-----------|
G|---------|-----------|
D|---------|-----------|
A|--1-3/5--|--5\4-3/6--|

Riff 2 (Verse)(Guitar 1)
D|----------|
A|----------|
F|----------|
C|----------|
G|--8~--\7--|
D|--8~--\7--|
A|--6~--\5--|

Riff 3 (Verse)(Guitar 2)
D|---------|
A|---------| Not sure if an effect is
F|---------| being used, but from what
C|---------| i can figure out, it's as
G|---------| if its bending/sliding up
D|--5^-5^--| from 5th fret to the 7th.
A|---------|

Riff 4 (Chorus)(Guitar 1)
D|----------------|-------------------|
A|----------------|-------------------|
F|----------------|-------------------|
C|----------------|-------------------|
G|--9-------------|--7~-9-------------|
D|--7--2222-2222--|--5~-7--2222-2222--|
A|-----0000-0000--|--------0000-0000--|

Riff 5 (Chorus)(Guitar 2)
D|------------------------------------|
A|------------------10~-12------------|
F|------------------------------------|
C|------------------------------------|
G|------------------------------------|
D|------------------------------------|
A|------------------------------------|

Riff 6 (Chorus)(Guitar 1)
D|----------------------|
A|----------------------|
F|----------------------|
C|----------------------|
G|--9~------7~--9~------|
D|--7~--2~--5~--7~--2~--|
A|------0~----------0~--|

Riff 7 (Bridge)(Guitar 1)
D|-------------------------------------|
A|-------------------------------------|
F|-------------------------------------|
C|-------------------------------------|
G|-----7-7-----6-----------------------|
D|--7-------7-----xxxxxx---7--4--3--2--|
A|--5-------5-----xxxxxx---5--2--1--0--|

Riff 8 (Bridge)(Guitar 1)
D|----------------------------------------|
A|----------------------------------------|
F|----------------------------------------|
C|----------------------------------------|
G|-----7-7-----6------2/3h5---7--4--3--2--|
D|--7-------7-----------------7--4--3--2--|
A|--5-------5-----00----------5--2--1--0--|

Riff 9 (Bridge)(Guitar 1)
D|-------------|
A|-------------|
F|-------------|
C|--9~\--------|
G|--9~\--------|
D|--7~\--------|
A|--^----------|

Riff 10 (Bridge)(Guitar 2)
D|-------------|
A|-------(10)--|
F|-------------|
C|-------------|
G|-------------|
D|-------------|
A|-------------|

NOTE: Listen to the song to structure out each riff
Tap to rate this tab
 
# A B C D E F G H I J K L M N O P Q R S T U V W X Y Z