Song name
# A B C D E F G H I J K L M N O P Q R S T U V W X Y Z

Korn - Too Late Im Dead tab

Korn - See You On The Other Side - Too Late I'm Dead

Tabbed By: FRr3AkOnALEaSh (smokin_05@hotmail.com)
Tuning: 7 String Tuned Low to High (A D G C F a d)

Vocal: Jonathan Houseman Davis 'Hiv'
Guitar: James Randal Shaffer 'Munky'
Bass: Reginald Arvizu 'Fieldy
Drums: David Silveria

NOTE: There isn't any real riff for the intro
or the verse, it's mainly just filled with 
lyrics, bass and fills that are absolutely 
SWARMED by effects.

Riff 1 (Intro/Optional)(Bass)
F|--------------|--------------| 
C|--------------|--------------| 
G|--------------|--------------| 
D|----------7~--|----------5~--| 
A|--000-666-----|--000-444-----| 

Riff 2 (Chorus)
D|-----------------------------|
A|-----------------------------|
F|-----------------------------|
C|-----------------------------|
G|-----------------------------|
D|--7/1010--10\99--8\88--7--8--|
A|--5/-8-8---8\77--7\66-----6--|

Riff 3 (Bridge)
D|-------------------|----------------|
A|-------------------|----------------|
F|-------------------|----------------|
C|------9-------9----|----------------|
G|----8---8---8---8--|--5555-4444-44--|
D|--7-------7--------|----------------|
A|-------------------|----------------|

Riff 4 (Bridge)
D|------------------------|----------------|
A|------------------------|----------------|
F|------------------------|----------------|
C|------------------------|----------------|
G|------------------------|----------------|
D|-------7-----------7----|--5555-4444-44--|
A|--0--6---6----0--6---6--|--3333-2222-22--|

Riff 5 (Bridge/Fill)
D|-------------------------| Same premise as the
A|-------------------------| Chorus.
F|-------------------------|
C|-------------------------|
G|-------------------------|
D|--------------------7----|
A|--5/88--8\77--7\66----6--|

Riff 6 (Outro)
D|-------------|
A|-------------|
F|-------------|
C|-------------|
G|--5555-4444--|
D|--5555-4444--|
A|--3333-2222--|

NOTE: Listen to the song to structure out each riff.
Tap to rate this tab
 
# A B C D E F G H I J K L M N O P Q R S T U V W X Y Z