Song name
# A B C D E F G H I J K L M N O P Q R S T U V W X Y Z

Korn - Its Me Again tab

Korn - See You On The Other Side - It's Me Again

Tabbed By: FRr3AkOnALEaSh (smokin_05@hotmail.com)
Tuning: 7 String Tuned Low to High (A D G C F a d)

Vocal: Jonathan Houseman Davis 'Hiv'
Guitar: James Randal Shaffer 'Munky'
Bass: Reginald Arvizu 'Fieldy
Drums: David Silveria

Riff 1 (Intro)
D|-----------------|
A|-----------------| Harmonics
F|-----------------|
C|-----------------|
G|-----------------|
D|-----------------|
A|--3---3---3---3--|

Riff 1.5 (Intro/Optional)
D|--------------------------|
A|--------------------------| Or you can rest your finger
F|--------------------------| gently on the string near the 
C|--------------------------| third fret to get a semi-harmonic
G|--------------------------| sound, still works good.
D|--------------------------|
A|--3-33--3-33--3-33--3-33--|

Riff 2 (Intro)
D|-------------------------|
A|-------------------------|
F|-------------------------|
C|-------------------------|
G|-------------------------|
D|--4/555-5/666-6/77-8\5~--|
A|--2/333-3/444-4/55-6\3~--|
    . ... . ... . .. . .    PM

Riff 3 (Intro/Chorus)
D|----------------|--------------|
A|----------------|--------------|
F|----------------|--------------|
C|----------------|--------------|
G|----------------|--------------|
D|---------3------|--------------|
A|--11111-----11--|--1/22--2/33--|

Riff 4 (Verse)
D|-------------------------------|
A|-------------------------------|
F|-------------------------------|
C|-------------------------------|
G|-------------------------------|
D|-------------------------------|
A|--2/333--3\2\1--6\5--5\4--4\3--|

Riff 5 (Fill/Pre-Chorus)
D|------------------------------------|
A|------------------------------------|
F|--7777777777777777-9999999999999\~--|
C|--xxxxxxxxxxxxxxxx-xxxxxxxxxxxxx\~--|
G|--5555555555555555-7777777777777\~--|
D|------------------------------------|
A|------------------------------------|

Riff 6 (Bridge)(Guitar 1)
D|-----------------|---------------|
A|-----------------|---------------|
F|-----------------|---------------|
C|-----------------|---------------|
G|--3~-------------|--3~-----------|
D|--3~-2---2-22-x--|--3~-2---------|
A|--1~-0---0-00-x--|--1~-0---0000--|

Riff 7 (Bridge)(Guitar 1)
D|------------------------------------|
A|------------------------------------|
F|------------------------------------|
C|------------------------------------|
G|--3~--------------6~----------------|
D|--3~-2---2-22-x---6~--5/6\5--4/5\4--|
A|--1~-0---0-00-x---4~--3/4\3--2/3\2--|

Riff 8 (Bridge)(Guitar 2)
D|-------------------|
A|-------------------| The only time a second
F|--8888888888-10\7--| guitar part really comes
C|--xxxxxxxxxx--x\x--| into play.
G|--6666666666--8\5--|
D|-------------------|
A|-------------------|

Riff 9 (Outro)
D|-----------------------|
A|-----------------------|
F|-----------------------|
C|-----------------------|
G|-----------------------|
D|--3---3-3---3-3-4---5--|
A|--1-----1---1-1-2---3--|

Riff 10 (Outro)
D|------------|-----------------|
A|------------|-----------------|
F|------------|-----------------|
C|------------|-----------------|
G|--3~-4~-5~--|-----------------|
D|--3~-4~-5~--|--3-3---3-3---3--|
A|--1~-2~-3~--|--1-1---1-1---1--|

NOTE: Listen to the song to structure out each riff
Tap to rate this tab
 
# A B C D E F G H I J K L M N O P Q R S T U V W X Y Z