Korn - Let The Guilt Go tab

-------------------------------------------------------------------------------
			     Let the guilt go - Korn
-------------------------------------------------------------------------------

Tabbed by: Marius
Email:  marius.cri@web.de

7 string guitar
Tuning: ADGCFad (1 Whole Step)


P.M.= Palm Muted

Verse 1:
D|-----------------------| 7x
A|-----------------------|
F|-----------------------|
C|-----------------------|
G|--4-4-4-4-4-5-5-5-5-3--|
D|--4-4-4-4-4-5-5-5-5-3--|
A|--2-2-2-2-2-3-3-3-3-1--|
P.M.    - -       - -

D|-----------------------| 1x
A|-----------------------|
F|-----------------------|
C|-----------------------|
G|--4-4-4-4-4-5-5-5-5-5--|
D|--4-4-4-4-4-5-5-5-5-5--|
A|--2-2-2-2-2-3-3-3-3-3--|
P.M.    - -       - -

Pre-Chorus: With Whammy Down 1 Octave. I guess Munky use the Digitech XP 100 (Program 18)
D|---------------------------| 3x          D = Pedal Down
A|---------------------------|             U = Pedal Up
F|---------------------------|
C|---------------------------|
G|---------------------------|
D|---------------------------|
A|--3-(3)(3)(3)(3)(3)(3)(3)--|
    D  U  D  U  D  U  D  U

D|---------------------------| 1x
A|---------------------------|
F|---------------------------|
C|---------------------------|
G|---------------------------|
D|---------------------------|
A|--3-(3)(3)(3)(3)(3)(3)-----|
    D  U  D  U  D  U  D


Or you can play it this way if you dont have a Whammy pedal:
D|-------------------| 3x
A|-------------------|
F|-------------------|
C|-------------------|
G|----5---5---5---5--|
D|-------------------|
A|--3---3---3---3----|


D|-------------------| 1x
A|-------------------|
F|-------------------|
C|-------------------|
G|----5---5---5------|
D|-------------------|
A|--3---3---3---3----|

Chorus:
D|---------------------|---------------------| 4x
A|---------------------|---------------------|
F|---------------------|---------------------|
C|---------------------|---------------------|
G|----5---5---11---11--|----10---10---4---4--|
D|---------------------|---------------------|
A|--3---3---9----9-----|--8----8----2---2----|
            ^Slide to this note

Or you can play it this way:
D|-------------------|-------------------| 4x
A|-------------------|-------------------|
F|-------------------|-------------------|
C|------------6---6--|----5---5----------|
G|----5---5----------|------------4---4--|
D|----------4---4----|--3---5------------|
A|--3---3------------|----------2---2----|

Breakedown:
Before Jonathan starts singing the second verse.

Guitar 1
D|-----------------------| 4x
A|-----------------------|
F|-----------------------|
C|-----------------------|
G|--4-4-4-4-4-5-5-5-5-3--|
D|--4-4-4-4-4-5-5-5-5-3--|
A|--2-2-2-2-2-3-3-3-3-1--|
P.M.    - -       - -

Guitar 2: With Wah/Wah or something else.
D|-----------------------| 4x
A|-----------------------|
F|-----------------------|
C|--0-0-----0-0-0-----0--|
G|--4-4-----4-5-5-----3--|
D|-----------------------|
A|-----------------------|

Verse 2:
D|-----------------------| 3x
A|-----------------------|
F|-----------------------|
C|-----------------------|
G|--4-4-4-4-4-5-5-5-5-3--|
D|--4-4-4-4-4-5-5-5-5-3--|
A|--2-2-2-2-2-3-3-3-3-1--|
P.M.    - -       - -

D|-----------------------| 1x
A|-----------------------|
F|-----------------------|
C|-----------------------|
G|--4-4-4-4-4-5-5-5-5-5--|
D|--4-4-4-4-4-5-5-5-5-5--|
A|--2-2-2-2-2-3-3-3-3-3--|
P.M.    - -       - -


Pre-Chorus and Chorus


Bridge:
Now we waste our lives...
D|--------------------------| 2x
A|--------------------------|
F|--------------------------|
C|--------------------------|
G|--8-----7-----5-----5-----|
D|--8-----7-----5-----5-----|
A|--6-----5-----3-----3-----|
                   ^
Im not sure about this bit, because I saw they play live this part this way.
D|-------------------------------------------------| 2x
A|-------------------------------------------------|
F|-------------------------------------------------|
C|-------------------------------------------------|
G|--5-5---5-8---5-5---5-7---5-5---5-5---5-5---5-5--|
D|--5-5---5-8---5-5---5-7---5-5---5-5---5-5---5-5--|
A|--3-3---3-6---3-3---3-5---3-3---3-3---3-3---3-3--|
P.M.- -   -     - -   -     - -   -     - -   -

Iīm such a stupid...

Guitar 1: Distortion and some effects
D|-------------------------------------------------------------------| 4x
A|--0---0---0-------4-----4-----4---0---0---0-------3-----3-----3----|
F|----5---5---5-5-5---5-5---5-5---5---5---5---5-5-5---5-5---5-5---5--|
C|-------------------------------------------------------------------|
G|-------------------------------------------------------------------|
D|-------------------------------------------------------------------|
A|-------------------------------------------------------------------|
P.M.- - - - - - - -   - -   - -   - - - - - - - - -   - -   - -   -


Guitar 2 play some stuff with this Chord.(palm muted and using the volume-knob) Listen 
the record.

D|-----|
A|-----|
F|-----|
C|-----|
G|--3--|
D|--3--|
A|--1--|


Then again:
Now we waste our lives...
D|--------------------------| 2x
A|--------------------------|
F|--------------------------|
C|--------------------------|
G|--8-----7-----5-----5-----|
D|--8-----7-----5-----5-----|
A|--6-----5-----3-----3-----|

Or

D|-------------------------------------------------| 2x
A|-------------------------------------------------|
F|-------------------------------------------------|
C|-------------------------------------------------|
G|--5-5---5-8---5-5---5-7---5-5---5-5---5-5---5-5--|
D|--5-5---5-8---5-5---5-7---5-5---5-5---5-5---5-5--|
A|--3-3---3-6---3-3---3-5---3-3---3-3---3-3---3-3--|
P.M.- -   -     - -   -     - -   -     - -   -


Pre-Chorus and Chorus


Breakdown:
D|---------------------------------------------------------------------------|
A|---------------------------------------------------------------------------|
F|---------------------------------------------------------------------------|
C|--0-0-0-0-0-0-0-0-0-0-0-0-0-0-0-0-0-0-0-0-0-0-0-0—0-0—0-0-0-0-0-0-0-0-0-0--|
G|--4-4-4-4-4-4-4-4-4-4-4-4-4-4-4-4-5-5-5-5-5-5-5-5-5-5-5-5-5-5-5-5-3-3-3-3--|
D|---------------------------------------------------------------------------|
A|---------------------------------------------------------------------------|
  3x

D|-----------------------------------------------------------------| 1x
A|-----------------------------------------------------------------|
F|-----------------------------------------------------------------|
C|--0-0-0-0-0-0-0-0-0-0-0-0-0-0-0-0-0-0-0-0-0-0-0-0-0-0-0-0-0-0-0--|
G|--4-4-4-4-4-4-4-4-4-4-4-4-4-4-4-4-5-5-5-5-5-5-5-5-5-5-5-5-5-5-5--|
D|-----------------------------------------------------------------|
A|-----------------------------------------------------------------|


Chorus


Outro: Play it few times and then slown down
D|---------------------------------------------------------------------------|
A|---------------------------------------------------------------------------|
F|---------------------------------------------------------------------------|
C|--0-0-0-0-0-0-0-0-0-0-0-0-0-0-0-0-0-0-0-0-0-0-0-0—0-0—0-0-0-0-0-0-0-0-0-0--|
G|--4-4-4-4-4-4-4-4-4-4-4-4-4-4-4-4-5-5-5-5-5-5-5-5-5-5-5-5-5-5-5-5-3-3-3-3--|
D|---------------------------------------------------------------------------|
A|---------------------------------------------------------------------------|


If you have any question or suggestion please send me an e-mail. Have fun.
Tap to rate this tab
 
# A B C D E F G H I J K L M N O P Q R S T U V W X Y Z