Korn - Fear Is A Place To Live tab

Korn - Korn III: Remember Who You Are - Fear Is A Place To Live

Tabbed By: FRr3AkOnALEaSh (smokin_05@hotmail.com)
Tuning: 7 String Tuned Low to High (A D G C F a d)

Vocal: Jonathan Houseman Davis 'Hiv'
Guitar: James Randal Shaffer 'Munky'
Bass: Reginald Arvizu 'Fieldy
Drums: Ray Luzier

Riff 1 (Intro)
D|-------|-----------|------------|
A|-------|-----------|------------|
F|-------|-----------|------------|
C|-------|-----------|------------|
G|-------|-----------|------------|
D|-------|-----------|-------2~---|
A|--0-0--|--00000-0--|--0000-0~0--|
     
Riff 2 (Verse)
D|-------------------------|
A|-------------------------|
F|-------------------------|
C|-------------------------|
G|-------------------------|
D|-------------------------|
A|--3-3-3-0-3-3/5-5-5\3-0--|

Riff 3 (Verse)
D|-------------------------|
A|-------------------------|
F|-------------------------|
C|-------------------------|
G|-------------------------|
D|-------------------------|
A|--3-3-3-0-3/5-6-6-6\5-0--|

Riff 4 (Chorus/Outro)(Guitar 1)
D|-----------------------|
A|-----------------------|
F|-----------------------|
C|-----------------------|
G|--9~--9----------------|
D|--7~--7-9~--9-7~--7-3~-|
A|--------7~--7-5~--5-1~-|

Riff 5 (Chorus/Outro)(Guitar 2)
D|-----------------------|
A|-----------------------|
F|-----------------------|
C|--4~--4-----------4-5~-|
G|--2~--2-4~--4-2~--2-3~-|
D|--------2~--2-0~-------|
A|-----------------------|

Riff 5 (Pre-Verse/Fill)
D|-------------|
A|-------------|
F|-------------|
C|-------------|
G|-------------|
D|-------------|
A|--0-0-00000--|

Riff 6 (Breakdown/Outro)
D|--------------|
A|--------------|
F|--1010101010--|
C|--xxxxxxxxxx--|
G|---8-8-8-8-8--|
D|--------------|
A|--------------|

Riff 7 (Breakdown)
D|--101010101010101010101010-12121212-9999999999999999--|
A|------------------------------------------------------|
F|------------------------------------------------------|
C|------------------------------------------------------|
G|------------------------------------------------------|
D|------------------------------------------------------|
A|------------------------------------------------------|

Riff 8 (Breakdown)
D|----------------------------------------------------------------------|
A|--12121212121212121212121212121212------------------------------------|
F|-----------------------------------121212121212121212121212-11111111--|
C|----------------------------------------------------------------------|
G|----------------------------------------------------------------------|
D|----------------------------------------------------------------------|
A|----------------------------------------------------------------------|

NOTE: For the Verse, remember to stop after each note as played in the song.
NOTE: Listen to the song to structure out each riff.
Tap to rate this tab
 
# A B C D E F G H I J K L M N O P Q R S T U V W X Y Z