Song name
# A B C D E F G H I J K L M N O P Q R S T U V W X Y Z

Korn - Fear Is A Place To Live tab

Tab made by Paincake
eguandelcandemore@gmail.com
Please rate it!

Intro

A||---------------------|
E||---------------------|
C||---------------------|
G||---------------------|
D||--------------2------|
A||-0-0-0-0-0-0--0-0----|

Verse
A||---------------------|
E||---------------------|
C||---------------------|
G||---------------------|
D||---------------------|
A||-3-3-3s-0-6-6-6s-0---|

Chorus
A||-------------------------------------|
E||-------------------------------------|
C||--9-x--9--5-x--5---------------------|
G||-------------------7-x--7---3--------|
D||--7-x--7--3-x--3---------------------|
A||-------------------5-x--5---1--------|

s->legato
Tap to rate this tab
 
# A B C D E F G H I J K L M N O P Q R S T U V W X Y Z