Song name
# A B C D E F G H I J K L M N O P Q R S T U V W X Y Z

Korn - Thougtles tab

by IVan 

intro
e|---------------------------------------------------------------------------|
B|---------------------------------------------------------------------------|
G|---------------------------------------------------------------------------|
D|---------------------------------------------------------------------------|
A|----5-----5--------5-----5--------7-----7--------7------8-8-8-8------------|
E|--0---0-0---0----0---0-0---0----0---0-0---0----0---0-0---------------------|
PM  .............................................................

e|---------------------------------------------------------------------------|
B|---------------------------------------------------------------------------|
G|--9~----12~----8~----------------------------------------------------------|
D|--x~-----x~----x~----------------------------------------------------------|
A|--7~----10~----6~----------------------------------------------------------|
E|---------------------------------------------------------------------------|

VERSE
e|---------------------------------------------------------------------------|
B|---------------------------------------------------------------------------|
G|-------7------7-----7-----9-----9-----9-----10-10-10-10--------------------|
D|--6666-7------7-----7-----9-----9-----9-----10-10-10-10--------------------|
A|--6666-5------5-----5-----7-----7-----7------8--8--8--8--------------------|
E|--4444----0-0---0-0---0-0---0-0---0-0---0-0--------------------------------|

PRE CHORUS
e|---------------------------------------------------------------------------|
B|---------------------------------------------------------------------------|
G|---------------------------------------------------------------------------|
D|----55-6666-5------55-6666-6-----------------------------------------------|
A|----55-6666-5------55-6666-6-----------------------------------------------|
E|--0-33-4444-3----0-33-4444-4-(1)-------------------------------------------|

CHORUS
e|---------------------------------------------------------------------------|
B|---------------------------------------------------------------------------|
G|-----------55555555--------------------------------------------------------|
D|--77777777-55555555-55555555-33333333--------------------------------------|
A|--77777777-33333333-55555555-33333333--------------------------------------|
E|--55555555----------33333333-11111111--------------------------------------|

INTERLUDE
e|---------------------------------------------------------------------------|
B|---------------------------------------------------------------------------|
G|---------------------------------------------------------------------------|
D|---------------------------------------------------------------------------|
A|----7-----7-----7-----8-8-8-8---5---5-----5-----5-----7-----7-----7----8888|
E|--0---0-0---0-0---0-0---------0---0---0-0---0-0---0-0---0-0---0-0---0-0----|
PM  .........................................................................
e|---------------------------------------------------------------------------|
B|---------------------------------------------------------------------------|
G|------7-----7-----7-----9-----9-----9-----10-10-10-10----------------------|
D|--666-7-----7-----7-----9-----9-----9-----10-10-10-10----------------------|
A|--666-5-----5-----5-----7-----7-----7------8--8--8--8----------------------|
E|--444---0-0---0-0---0-0---0-0---0-0---0-0----------------------------------|

e|---------------------------------------------------------------------------|
B|---------------------------------------------------------------------------|
G|--9~----12~----8~----------------------------------------------------------|
D|--x~-----x~----x~----------------------------------------------------------|
A|--7~----10~----6~----------------------------------------------------------|
E|---------------------------------------------------------------------------|

OUTRO
e|---------------------------------------------------------------------------|
B|---------------------------------------------------------------------------|
G|-----------55555555--------------------------8~----------------------------|
D|--77777777-55555555-55555555-33333333--------x~----------------------------|
A|--77777777-33333333-55555555-33333333-(3x)---6~----------------------------|
E|--55555555----------33333333-11111111--------------------------------------|

Tap to rate this tab
# A B C D E F G H I J K L M N O P Q R S T U V W X Y Z