Song name
# A B C D E F G H I J K L M N O P Q R S T U V W X Y Z

Korn - A. D. I. D. A. S tab

Guitar 1 (Munky):

Intro1
|--------------------------------|
|--------------------------------|
|--------------------------------|
|--------------------------------|
|--------------------------------|
|--------------------------------|
|-0---1---0-3-1-0-0-1-2----- |

Intro 2/Verse
|---------------------------------------------|
|---------------------------------------------|
|---------------------------------------------|
|---------------------------------------------|
|---------------------------------------------|
|---------------------5--------------------4-|
|-3-4-3-6-4-3-3-4---3-4-3-6-4-3-3-4---|

Pre-Chorus
|----------------------------|
|----------------------------|
|----------------------------| 
|----------------------------| 4(x)
|----------------------------|
|-3-------------------------|
|---2-0-2-3-2-0-2-0-2---|

Chorus
|-------------------------|
|-------------------------|
|-------------------------|
|-------------------------|
|----------5------- 2----|
|-2---5---3---5---0--3-|
|-0---3--------3------1-|

Bridge1
p.m.
|--------------------------------------|
|----------------------------------------|
|----------------------------------------|
|----------------------------------------|
|----------------------------------------|
|----------------------------------------|
|-0-0-12-0--0000--0-0-12-0--000-|

Bridge 2
|-------------------------------------------------------------------------------|
|-------------------------------------------------------------------------------|
|-------------------------------------------------------------------------------|
|-------------------------------------------------------------------------------|
|-------------------------------------------------------------------------------|
|-0-0-12-0--0000----------------------0-0-12-0--000---------------------|
|-0-0-12-0--0000---12h13h14h15---0-0-12-0--000---12h13h14h15-|

Guitar 2 (Head):

Intro 1
|-------------------------|
|-------------------------|
|-------------------------|
|-------------------------|
|-------------------------|
|-------------------------|
|0--1--0-3-1-0-0-1-2-|

Intro 2/Verse
|---------------------------------------------------|
|---------------------------------------------------|
|---------------------------------------------------|
|---------------------------------------------------|
|-----------------------2------------------------1-|
|0--1--0-3-1-0-0-1-----0--1--0-3-1-0-0-1----|
|---------------------------------------------------|

Pre-Chorus
|----------------------------|
|----------------------------|
|----------------------------|
|----------------------------| 4(x)
|----------------------------|
|-3-------------------------|
|---2-0-2-3-2-0-2-0-2---|


Chorus(dist. And fast Chorus)
|--------------------------------------------------------------------|
|--------------------------------------------------------------------|
|-16----14---19---21--23\-----16----14---14------------------|
|----------------------------------------------------16---17---14-|
|-14----12---17---19--21\-----14----12---12------------------|
|----------------------------------------------------14---15---12-|
|--------------------------------------------------------------------|

Bridge 1(dist. And heavy Reverb)
|--------------------------------------------------------------------|
|--------------------------------------------------------------------|
|-16----14---19---21--23\-----16----14---14------------------|
|----------------------------------------------------16---17---14-|
|-14----12---17---19--21\-----14----12---12------------------|
|----------------------------------------------------14---15---12-|
|--------------------------------------------------------------------|

Bridge 2
|--------------------------------------------------------------------|
|--------------------------------------------------------------------|
|--------------------------------------------------------------------|
|--------------------------------------------------------------------|
|--------------------------------------------------------------------|
|-0-0-12-0--0000-----------------0-0-12-0--000-------------- |
|-0-0-12-0--0000---0h1h2h3---0-0-12-0--000---0h1h2h3

If you have trouble with this feel free to send me a message @ mgs2_blade@yahoo.co.uk
Tap to rate this tab
# A B C D E F G H I J K L M N O P Q R S T U V W X Y Z