Song name
# A B C D E F G H I J K L M N O P Q R S T U V W X Y Z

Korn - Ball Tongue tab

Intro x4 x1
D|------------------|-------------------------------------|
A|------------------|-------------------------------------|
F|------------------|-------------------------------------|
C|------------------|-------------------------------------|
G|-----7\6-----10-9-|---------------10--9-----10--------9-|
D|-7/8-5\4-7/8-8--7-|---------------8---7-----8---------7-|
A|-5/6-----5/6------|(Fieldy's-Solo)-000--------0--0--0---|

Main Riff x3 x1 
D|---------------------|-------------------| 
A|---------------------|-------------------|
F|---------------------|-------------------| 
C|---------------------|-------------------| 
G|-----7\6-----7\6-----|-----7\6-----10--9-|
D|-7/8-5\4-7/8-5\4-8/7-|-7/8-5\4-7/8-8---7-|
A|-5/6-----5/6-----6/5-|-5/6-----5/6---00--|

Pre-Verse 1 Verse (^^=bend one full step then bring it back down)
D|-12^---------14^-17^-|-19^^--19^^--19^^--19^^--19^^--19^^--19^^--19^^-|
A|---------------------|------------------------------------------------|
F|---------------------|------------------------------------------------|
C|---------------------|------------------------------------------------|
G|---------------------|------------------------------------------------|
D|---------------------|------------------------------------------------|
A|---------------------|------------------------------------------------|

Chorus - Head x4 Chorus - Munky x1
D|--------------| |-----------------------|
A|--------------| |-----------------------|
F|--------------| |-----------------------|
C|--------------| |-----------------------|
G|--------------| |-6---4-------4-------7-|
D|-22---2-22-33-| |---------5-------7-----|
A|-00---0-00-11-| |-----------------------|

Pre-Verse 2 Verse
D|-------21-|-19^^--19^^--19^^--19^^--19^^--19^^--19^^--19^^-|
A|----14----|------------------------------------------------|
F|----------|------------------------------------------------|
C|----------|------------------------------------------------|
G|----------|------------------------------------------------|
D|----------|------------------------------------------------|
A|----------|------------------------------------------------|

Chorus - Head x8 Chorus - Munky x2
D|--------------| |-----------------------|
A|--------------| |-----------------------|
F|--------------| |-----------------------|
C|--------------| |-----------------------|
G|--------------| |-6---4-------4-------7-|
D|-22---2-22-33-| |---------5-------7-----|
A|-00---0-00-11-| |-----------------------|

Fill - Head Fill - Munky (shortly after Head hits his note)
D|----------| |---------|
A|-14~~~----| |-10~~~---|
F|----------| |---------|
C|----------| |---------|
G|----------| |---------|
D|----------| |---------|
A|----------| |---------|

Main Riff x3 x1
D|---------------------|-------------------|
A|---------------------|-------------------|
F|---------------------|-------------------|
C|---------------------|-------------------|
G|-----7\6-----7\6-----|-----7\6-----10--9-|
D|-7/8-5\4-7/8-5\4-8/7-|-7/8-5\4-7/8-8---7-|
A|-5/6-----5/6-----6/5-|-5/6-----5/6---00--|

Main Riff x3 x1
D|---------------------|------------------------|
A|---------------------|------------------------|
F|---------------------|------------------------|
C|---------------------|------------------------|
G|-----7\6-----7\6-----|-----7\6-----10-------9-| 
D|-7/8-5\4-7/8-5\4-8/7-|-7/8-5\4-7/8-8--------7-|
A|-5/6-----5/6-----6/5-|-5/6-----5/6---0--0--0--|

Bridge x4 
D|-16^-----------------16^-|
A|---------15p11-15p11-----|
F|-------------------------|
C|-------------------------|
G|-------------------------|
D|-------------------------|
A|-------------------------|

Main Riff x3 x1 
D|---------------------|-------------------| 
A|---------------------|-------------------|
F|---------------------|-------------------|
C|---------------------|-------------------| 
G|-----7\6-----7\6-----|-----7\6-----10--9-|
D|-7/8-5\4-7/8-5\4-8/7-|-7/8-5\4-7/8-8---7-|
A|-5/6-----5/6-----6/5-|-5/6-----5/6---00--|

Interlude x2
D|-----------------------|
A|-----------------------|
F|-----------------------|
C|-----------------------|( You have to fade in and out with
G|-6---4-------4-------7-| your volume control for this part )
D|---------5-------7-----|
A|-----------------------|

Outro - Head x8 Outro - Munky x2
D|--------------| |-----------------------|
A|--------------| |-----------------------|
F|--------------| |-----------------------|
C|--------------| |-----------------------|
G|--------------| |-6---4-------4-------7-|
D|-22---2-22-33-| |---------5-------7-----|
A|-00---0-00-11-| |-----------------------|

Outro - Head x4
D|--------------|
A|--------------|
F|--------------|
C|--------------|
G|--------------|
D|-22---2-22-33-|
A|-00---0-00-11-|

Outro - Head x8 Outro - Munky x2
D|--------------| |-----------------------|
A|--------------| |-----------------------|
F|--------------| |-----------------------|
C|--------------| |-----------------------|
G|--------------| |-6---4-------4-------7-|
D|-22---2-22-33-| |---------5-------7-----|
A|-00---0-00-11-| |-----------------------|

Outro - Head
D|-------|
A|-------|
F|-------|
C|-------| When played live they stop here..where 
G|-------| Jon says "your're a dyke" but on the cd
D|-22--3-| they repeat the top riff until it fades
A|-00--1-| out.
Tap to rate this tab
# A B C D E F G H I J K L M N O P Q R S T U V W X Y Z