Guitaretab - guitar tabs
Song name
# A B C D E F G H I J K L M N O P Q R S T U V W X Y Z

Korn - Blind tab

Band- Korn
Song- Blind
Album- Korn

Gtr I (A D G C F A D) - 'Untitled'
Gtr II (A D G C F A D) - 'Untitled'
Gtr III (A D G C F A D) - '/wah'

 Intro
  Q=94
 4/4
  Gtr I
  Wx2          H    Q  S S S S     H    Q  S S S S   9x
|------------|---------0-0-0-0-||----------0-0-0-0---||
|------------|---------5-5-5-5-||----------5-5-5-5---||
|------------|---------3-3-3-3-||o---------3-3-3-3--o||
|------------|-----------------||--------------------||
|------------|-----------------||o------------------o||
|------------|-----------------||--------------------||
|------------|-----------------||--------------------||


  H           Q  S S S S   H    Q  S S S S
|----------------0-0-0-0-|---------0-0-0-0-|
|----------------5-5-5-5-|---------5-5-5-5-|
|----------------3-3-3-3-|---------3-3-3-3-|
|------------------------|-----------------|
|------------------------|-----------------|
|------------------------|-----------------|
|------------------------|-----------------|
|
| Gtr II
| PM   PM
| S  E S  E E H            W
|------------------------|-----------------|
|------------------------|-----------------|
|------------------------|-----------------|
|------------------------|-----------------|
|---10---11--------------|-----------------|
|----9---10--------------|-----------------|
|-0----0-----------------|-----------------|


  H           Q  S S S S   H    Q  S S S S
|----------------0-0-0-0-|---------0-0-0-0---|
|----------------5-5-5-5-|---------5-5-5-5---|
|----------------3-3-3-3-|---------3-3-3-3---|
|------------------------|-------------------|
|------------------------|-------------------|
|------------------------|-------------------|
|------------------------|-------------------|
|
| PM   PM
| S  E S  E E H            W
|------------------------|-------------------|
|------------------------|-------------------|
|------------------------|-------------------|
|------------------------|-------------------|
|---10---11--------------|-------------------|
|----9---10--------------|-------------------|
|-0----0-----------------|-------------------|


    H            Q      S S S S  3x H            Q      S S S S
||----------------------0-0-0-0--||---------------------0-0-0-0-|
||----------------------5-5-5-5--||---------------------5-5-5-5-|
||o---------------------3-3-3-3-o||---------------------3-3-3-3-|
||-------------------------------||-----------------------------|
||o-----------------------------o||-----------------------------|
||-------------------------------||-----------------------------|
||-------------------------------||-----------------------------|
|
|                                                       PM----|
|   S E S E S S +S  S E Q        3x S E S E S S +S  S E S S S S
||-------------------------------||-----------------------------|
||-------------------------------||-----------------------------|
||o-----------------------------o||-----------------------------|
||-------------------------------||-----------------------------|
||o-----------------------------o||-----------------------------|
||-------------------------------||---------------------1-1-1-1-|
||--0-2-0-3-0-2-(2)-0-3----------||-0-2-0-3-0-2-(2)-0-3---------|


                                   3/16
    Gtrs I, II
    S E S E S S +S  S E S S S S  4x E.
||-------------------------------||----|
||-------------------------------||----|
||o-----------------------------o||----|
||-------------------------------||----|
||o-----------------------------o||----|
||----------------------1-1-1-1--||----|
||--0-2-0-3-0-2-(2)-0-3----------||----|


   4/4
    S E S E S S +S  S E S S S S  4x
||-------------------------------||
||-------------------------------||
||o-----------------------------o||
||-------------------------------||
||o-----------------------------o||
||----------------------1-1-1-1--||
||--0-2-0-3-0-2-(2)-0-3----------||


  S S S S E S S +S  S E S S S S     S E S E S S +S  S E S S S S  3x
|-------------------------------||-------------------------------||
|-------------------------------||-------------------------------||
|-------------------------------||o-----------------------------o||
|-------------------------------||-------------------------------||
|-------------------------------||o-----------------------------o||
|-----------------------1-1-1-1-||----------------------1-1-1-1--||
|-0-0-0-0-3-0-2-(2)-0-3---------||--0-2-0-3-0-2-(2)-0-3----------||


   1st & 2nd Verses
    Q=86
    Gtr III
    TP       TP  TP      TP    TP   TP       TPTPTP   TP   TP       TP   TP
    H       +E  +E      +E    +E    H        E E E   +E    H       +Q   +Q
||--0-------(0)-(0)-----(0)---(0)-|-0--------0-0-0---(0)-|-0-------(0)--(0)--|
||--3b5=====(3)r(3)pb4==(3)b5-(3)-|-3pb5=====3r3-3b5-(3)-|-3pb5----(3)r=(3)--|
||o-------------------------------|----------------------|-------------------|
||--------------------------------|----------------------|-------------------|
||o-------------------------------|----------------------|-------------------|
||--------------------------------|----------------------|-------------------|
||--------------------------------|----------------------|-------------------|
|
|   Gtrs I, II
|   W                               W                      W
||--------------------------------|-0--------------------|-------------------|
||--------------------------------|-0--------------------|-------------------|
||o-------------------------------|-2--------------------|-------------------|
||--2-----------------------------|-3--------------------|-2-----------------|
||o-2-----------------------------|-3--------------------|-2-----------------|
||--0-----------------------------|-1--------------------|-0-----------------|
||--------------------------------|----------------------|-------------------|


  TP      TP    TP    TP
  H       E    +E    +E  S S    Q   S  S  E  E  E  E E    Q   E  E  E  E  E  E
|-0-------0----(0)---(0)-----|------0-----0--0--0--0-0-|--0---0--0--0--0--0--0-|
|-3pb5----3pb5r(3)b5-(3)---3s|=12--12-12-12-12-10-10-8-|-10--10-10-10-10-10-10-|
|----------------------------|-------------------------|-----------------------|
|----------------------------|-------------------------|-----------------------|
|----------------------------|-------------------------|-----------------------|
|----------------------------|-------------------------|-----------------------|
|----------------------------|-------------------------|-----------------------|
|
| W                             W                         W
|-0--------------------------|-------------------------|--0--------------------|
|-0--------------------------|-------------------------|--0--------------------|
|-2--------------------------|-------------------------|--2--------------------|
|-3--------------------------|--2----------------------|--3--------------------|
|-3--------------------------|--2----------------------|--3--------------------|
|-1--------------------------|--0----------------------|--1--------------------|
|----------------------------|-------------------------|-----------------------|


                                                  Q=100
   Q   S  S  E  E  E  E E    Q   E  E  E  E  E  E    W
|------0-----0--0--0--0-0-|--0---0--0--0--0--0--0-||-------------------------|
|-12--12-12-12-12-10-10-8-|-10--10-10-10-10-10-10-||-------------------------|
|-------------------------|-----------------------||-------------------------|
|-------------------------|-----------------------||-------------------------|
|-------------------------|-----------------------||-------------------------|
|-------------------------|-----------------------||-------------------------|
|-------------------------|-----------------------||-------------------------|
|
|  W                         W                       Q  S S S S E S S S S E
|-------------------------|--0--------------------||-------------------------|
|-------------------------|--0--------------------||-------------------------|
|-------------------------|--2--------------------||-------------------------|
|--2----------------------|--3--------------------||-------------------------|
|--2----------------------|--3--------------------||----------------------8--|
|--0----------------------|--1--------------------||-7--7s8-7-7---7-7-7s8-6--|
|-------------------------|-----------------------||-5--5s6-5-5---5-5-5s6----|


  Gtrs I, II
  Q  S S S S E S S S S E   Q  S S S S E S S S S E
|------------------------|------------------------|
|------------------------|------------------------|
|------------------------|------------------------|
|------------------------|------------------------|
|------------------------|----------------------8-|
|----7s8-7-7---7-7-7s8-6-|----7s8-7-7---7-7-7s8-6-|
|----5s6-5-5---5-5-5s6-4-|----5s6-5-5---5-5-5s6---|


 5/4
  Q  S S S S E S S S S E +Q
|------------------------------||
|------------------------------||
|-----------------------------o||
|----------------------0-(0)---||
|----------------------5-(5)--o||
|----7s8-7-7---7-7-7s8-6-(6)---||
|----5s6-5-5---5-5-5s6---------||


  Q=94
 4/4
  Gtr I
  PM----------------------------------------------|
  S E S E S S +S  S E S S S S   S E S E S S +S  S E  S   S  E
|-----------------------------|---------------------------------|
|-----------------------------|---------------------<5>-<5>-----|
|-----------------------------|---------------------------------|
|-----------------------------|---------------------------------|
|-----------------------------|---------------------------------|
|---------------------1-1-1-1-|---------------------------------|
|-0-2-0-3-0-2-(2)-0-3---------|-0-2-0-3-0-2-(2)-0-3-------------|
|
| Gtr II
| S E S E S S +S  S E S S S S   S E S E S S +S  S E  S   S  S S
|-----------------------------|---------------------------------|
|-----------------------------|---------------------------------|
|-----------------------------|---------------------------------|
|-----------------------------|---------------------------------|
|-----------------------------|---------------------------------|
|---------------------1-1-1-1-|----------------------1---1--1-1-|
|-0-2-0-3-0-2-(2)-0-3---------|-0-2-0-3-0-2-(2)-0-3-------------|


  PM------------------------|
  S E S E S S +S  S E S S S S
|-------------------------------|
|-------------------------------|
|-------------------------------|
|-------------------------------|
|-------------------------------|
|---------------------1-1-1-1---|
|-0-2-0-3-0-2-(2)-0-3-----------|
|
| S E S E S S +S  S E S S S S
|-------------------------------|
|-------------------------------|
|-------------------------------|
|-------------------------------|
|-------------------------------|
|---------------------1-1-1-1---|
|-0-2-0-3-0-2-(2)-0-3-----------|

[ Tab from: http://www.guitaretab.com/k/korn/24737.html ]
  PM-----------------------------------------------------------
  S E S E S S +S  S E S S S S   S S S S E S S +S  S E S S S S
|-----------------------------|-------------------------------|
|-----------------------------|-------------------------------|
|-----------------------------|-------------------------------|
|-----------------------------|-------------------------------|
|-----------------------------|-------------------------------|
|---------------------1-1-1-1-|-----------------------1-1-1-1-|
|-0-2-0-3-0-2-(2)-0-3---------|-0-0-0-0-3-0-2-(2)-0-3---------|
|
| S E S E S S +S  S E S S S S   S S S S E S S +S  S E S S S S
|-----------------------------|-------------------------------|
|-----------------------------|-------------------------------|
|-----------------------------|-------------------------------|
|-----------------------------|-------------------------------|
|-----------------------------|-------------------------------|
|---------------------1-1-1-1-|-----------------------1-1-1-1-|
|-0-2-0-3-0-2-(2)-0-3---------|-0-0-0-0-3-0-2-(2)-0-3---------|


 ---------------------------|
  S E S E S S +S  S E S S S S
|-------------------------------|
|-------------------------------|
|-------------------------------|
|-------------------------------|
|-------------------------------|
|---------------------1-1-1-1---|
|-0-2-0-3-0-2-(2)-0-3-----------|
|
| S E S E S S +S  S E S S S S
|-------------------------------|
|-------------------------------|
|-------------------------------|
|-------------------------------|
|-------------------------------|
|---------------------1-1-1-1---|
|-0-2-0-3-0-2-(2)-0-3-----------|


  PM---------------------------
  S E S E S S +S  S E S S S S
|-----------------------------|
|-----------------------------|
|-----------------------------|
|-----------------------------|
|-----------------------------|
|---------------------1-1-1-1-|
|-0-2-0-3-0-2-(2)-0-3---------|
|
| S E S E S S +S  S E S S S S
|-----------------------------|
|-----------------------------|
|-----------------------------|
|-----------------------------|
|-----------------------------|
|---------------------1-1-1-1-|
|-0-2-0-3-0-2-(2)-0-3---------|


                                  Interlude
                                Q=90
 -----------------------------|
  S S S S E S S +S  S E S S S S    W
|-------------------------------||-----------------|
|-------------------------------||-----------------|
|-------------------------------||-----------------|
|-------------------------------||-----------------|
|-------------------------------||-----------------|
|-----------------------1-1-1-1-||-----------------|
|-0-0-0-0-3-0-2-(2)-0-3---------||-----------------|
|
| S S S S E S S +S  S E S S S S    H.      S S S S
|-------------------------------||-0-------5-5-5-5-|
|-------------------------------||-0-------5-5-5-5-|
|-------------------------------||-0-------3-3-3-3-|
|-------------------------------||-----------------|
|-------------------------------||-5---------------|
|-----------------------1-1-1-1-||-5---------------|
|-0-0-0-0-3-0-2-(2)-0-3---------||-----------------|


  Gtr II
  H    Q  S S S S   H.      S S S S   H    Q  S S S S
|---------5-5-5-5-|-0-------5-5-5-5-|---------5-5-5-5-||
|---------5-5-5-5-|-0-------5-5-5-5-|---------5-5-5-5-||
|---------3-3-3-3-|-0-------3-3-3-3-|---------3-3-3-3-||
|-----------------|-----------------|-----------------||
|-----------------|-5---------------|-----------------||
|-----------------|-5---------------|-----------------||
|-----------------|-----------------|-----------------||


  H.      S S S S   H    Q  S S S S   H.      S S S S
|-0-------5-5-5-5-|---------5-5-5-5-|-0-------5-5-5-5-|
|-0-------5-5-5-5-|---------5-5-5-5-|-0-------5-5-5-5-|
|-0-------3-3-3-3-|---------3-3-3-3-|-0-------3-3-3-3-|
|-----------------|-----------------|-----------------|
|-5---------------|-----------------|-5---------------|
|-5---------------|-----------------|-5---------------|
|-----------------|-----------------|-----------------|


                    Chorus
  Gtr I
  W                  H.        +E  +E    W
|-----------------||-0---------(0)-(0)-|-0------|
|-----------------||-3b5=======(3)r(3)-|-3b5----|
|-----------------||-------------------|--------|
|-----------------||-------------------|--------|
|-----------------||-------------------|--------|
|-----------------||-------------------|--------|
|-----------------||-------------------|--------|
|
| Gtr II
| H    Q  S S S S    W                   W
|---------5-5-5-5-||-0-----------------|-0------|
|---------5-5-5-5-||-0-----------------|-0------|
|---------3-3-3-3-||-4-----------------|-2------|
|-----------------||-4-----------------|-3------|
|-----------------||-2-----------------|-3------|
|-----------------||-0-----------------|-1------|
|-----------------||-------------------|--------|


  H.        +E  +E    H.        +E  +E    E  S  S  E  S  S  S  S  E  S S E
|-0---------(0)-(0)-|-0---------(0)-(0)-|----0--0--0--0--0--0--0--0--0---0-|
|-3b5=======(3)r(3)-|-3b5=======(3)r(3)-|---12-12-12-12-12-12-10-10-10s8-8-|
|-------------------|-------------------|----------------------------------|
|-------------------|-------------------|----------------------------------|
|-------------------|-------------------|----------------------------------|
|-------------------|-------------------|----------------------------------|
|-------------------|-------------------|----------------------------------|
|
| W                   W                   W
|-0-----------------|-0-----------------|-0--------------------------------|
|-0-----------------|-0-----------------|-0--------------------------------|
|-4-----------------|-2-----------------|-4--------------------------------|
|-4-----------------|-3-----------------|-4--------------------------------|
|-2-----------------|-3-----------------|-2--------------------------------|
|-0-----------------|-1-----------------|-0--------------------------------|
|-------------------|-------------------|----------------------------------|


   E  S  S  E  S  S  S  S  S  S  S  S  E
|--0--0--0--0--0--0--0--0--0--0--0--0--0-|
|-10-13-13-13-13-13-13s12-12-12-12s10-10-|
|----------------------------------------|
|----------------------------------------|
|----------------------------------------|
|----------------------------------------|
|----------------------------------------|
|
|  W
|--0-------------------------------------|
|--0-------------------------------------|
|--2-------------------------------------|
|--3-------------------------------------|
|--3-------------------------------------|
|--1-------------------------------------|
|----------------------------------------|


                                     >
  E  S  S  E  S  S  S  S  E  S S E   H       H
|----0--0--0--0--0--0--0--0--0---0-|-0-------------------||
|---12-12-12-12-12-12-10-10-10s8-8-|-3b5-----------------||
|----------------------------------|---------------------||
|----------------------------------|---------------------||
|----------------------------------|---------------------||
|----------------------------------|---------------------||
|----------------------------------|---------------------||
|
| W                                  Q    Q  E E S S S S
|-0--------------------------------|-------------0-0-0-0-||
|-0--------------------------------|-------------5-5-5-5-||
|-4--------------------------------|-------------3-3-3-3-||
|-4--------------------------------|---------------------||
|-2--------------------------------|---------------------||
|-0--------------------------------|-5----5--x-x---------||
|----------------------------------|-3----3--x-x---------||


    Q=94
    H            Q      S S S S  4x
||----------------------0-0-0-0--||-|
||----------------------5-5-5-5--||-|
||o---------------------3-3-3-3-o||-|
||-------------------------------||-|
||o-----------------------------o||-|
||-------------------------------||-|
||-------------------------------||-|
|
|   S E S E S S +S  S E S S S S  4x
||-------------------------------||-|
||-------------------------------||-|
||o-----------------------------o||-|
||-------------------------------||-|
||o-----------------------------o||-|
||----------------------1-1-1-1--||-|
||--0-2-0-3-0-2-(2)-0-3----------||-|


    H            Q      S S S S  3x H            Q      S S S S
||----------------------0-0-0-0--||---------------------0-0-0-0--||
||----------------------5-5-5-5--||---------------------5-5-5-5--||
||o---------------------3-3-3-3-o||---------------------3-3-3-3--||
||-------------------------------||------------------------------||
||o-----------------------------o||------------------------------||
||-------------------------------||------------------------------||
||-------------------------------||------------------------------||
|
|   S E S E S S +S  S E S S S S  3x S E S E S S +S  S E S S S S
||-------------------------------||------------------------------||
||-------------------------------||------------------------------||
||o-----------------------------o||------------------------------||
||-------------------------------||------------------------------||
||o-----------------------------o||------------------------------||
||----------------------1-1-1-1--||---------------------1-1-1-1--||
||--0-2-0-3-0-2-(2)-0-3----------||-0-2-0-3-0-2-(2)-0-3----------||


   Outro
    Q=108
    W            H    Q  S S S S
||------------||-----------------|
||------------||-----------------|
||o----------o||---------x-x-x-x-|
||------------||-----------------|
||o----------o||-----------------|
||------------||-----------------|
||------------||-----------------|


     Q     Q  Q  S S S S    Q     Q  E  Q       +E    4x
||--24b27----------------|-24b27-------10------(10)---||
||-----------------------|-------------13pb15r=(13)---||
||o--------------x-x-x-x-|-----------x---------------o||
||-----------------------|----------------------------||
||o----------------------|---------------------------o||
||-----------------------|----------------------------||
||-----------------------|----------------------------||


Duration Legend
---------------
W - whole; H - half; Q - quarter; E - 8th; S - 16th; T - 32nd; X - 64th; a - acciaccatura
+ - note tied to previous; . - note dotted; .. - note double dotted
Uncapitalized letters represent notes that are staccato (1/2 duration)
Irregular groupings are notated above the duration line
Duration letters will always appear directly above the note/fret number it represents the
duration for.  Duration letters with no fret number below them represent rests.  Multi-
bar rests are notated in the form Wxn, where n is the number of bars to rest for.  Low
melody durations appear below the staff

Tablature Legend
----------------
 h   - hammer-on
 p   - pull-off
 b   - bend
 pb  - pre-bend
 r   - bend release (if no number after the r, then release immediately)
 /\  - slide into or out of (from/to "nowhere")
 s   - legato slide
 S   - shift slide
  - natural harmonic
[n]  - artificial harmonic
n(n) - tapped harmonic
 ~   - vibrato
 tr  - trill
 T   - tap
 TP  - trem. picking
 PM  - palm muting
\n/  - tremolo bar dip; n = amount to dip
 \n  - tremolo bar down
 n/  - tremolo bar up
/n\  - tremolo bar inverted dip
 =   - hold bend; also acts as connecting device for hammers/pulls
 <>  - volume swell (louder/softer)
 x   - on rhythm slash represents muted slash
 o   - on rhythm slash represents single note slash

Misc Legend
-----------
 |  - bar
||  - double bar
||o - repeat start
o|| - repeat end
*|  - double bar (ending)
 :  - bar (freetime)
 $  - Segno
 &  - Coda
Tempo markers -  = BPM(8/16=s8/s16), where s8 = swing 8ths, s16 = swing 16ths
Related for Blind tab
Blind chords by Korn