Song name
# A B C D E F G H I J K L M N O P Q R S T U V W X Y Z

Korn - Everything Ive Known tab

     Standard Tune 7-string with fat string tuned down to A
     (similar as a six string in "drop D", but seven string  in "drop A")
     playing a 7 string in drop A, with this tab, you can play along with
     the song in perfect tune.    enjoy



     Intro
E|-----------------------------------------------------------------|
B|-----------------------------------------------------------------|
G|-----------------------------------------------------------------|
D|-------------------------------------------------5---------------|
A|-----5-6-------------5-3-------------5-6---3-----------3---------|
E|-----------------------------------------------------------------|
A|-3---------------3---------------3-------------------------------|

    Overdrive
E|---------------------------------|
B|---------------------------------|
G|-5-----------------5---5/6---3---|
D|-5-----------------5---5/6---3---|
A|-3-------3---------3---3/4---1---|
E|---------3-----------------------|
A|---------3-----------------------|

     Verse
E|-----------------------------------------------------------------|
B|-----------------------------------------------------------------|
G|-----------------------------------------------------------------|
D|-------------------------------------------------5---------------|
A|-----5-6-------------5-3-------------5-6---3-----------3---------|
E|-----------------------------------------------------------------|
A|-3---------------3---------------3-------------------------------|

     Always, I see it's going down
     Today, hoping in time
     We'll bury all this pain
     And we'll awake
     Something inside

     bridge
E|---------------------------------|
B|---------------------------------|
G|-5-5-5-5-5-5-5-5-5-5-5-5/6-6\3-3-|
D|-x-x-x-x-x-x-x-x-x-x-x-x-x-x-x-x-|
A|-3-3-3-3-3-3-3-3-3-3-3-3/4-4\1-1-|
E|---------------------------------|
A|---------------------------------|

     We pushed our plugs too far inside
     We tear our hearts out and
     Then we fight

     Chorous
E|---------------------------------|
B|---------------------------------|
G|-5-----------------5---5/6---3---|
D|-5-----------------5---5/6---3---|
A|-3-------3---------3---3/4---1---|
E|---------3-----------------------|
A|---------3-----------------------|

     Why I know
     Feels like I've lost everything that I've known
     I cannot survive, alone
     Feels like I've lost everything that I've known

     Verse 2

     Our lives, were good in every way
     Too late, time after time
     Our love just turned to hate
     But we stayed by
     Each others side

     bridge

     We pushed our plugs too far inside
     We tear our hearts out and
     Then we fight

     Chorous

     Why I know
     Feels like I've lost everything that I've known
     I cannot survive, alone
     Feels like I've lost everything that I've known

     Verse 3

     I keep holding on
     I fear I'm where I belong

E|-----------------------------------------------------------------|
B|-----------------------------------------------------------------|
G|-----------------------------------------------------------------|
D|-----------------------------------------------------------------|
A|-3---4-3---------3---4-3---------3---4-1---------4-----3---------|
E|-3---4-3---------3---4-3---------3---4-1---------4-----3---------|
A|-3---4-3---------3---4-3---------3---4-1---------4-----3---------|

     Every time we fight it feels so wrong
     I feel so enslaved, fuck my pride
     Can we meet again?

E|---------------|
B|---------------|
G|---------------|
D|---------------|
A|-2-----1-------|
E|-2-----1-------|
A|-2-----1-------|



    repeat Bridge & chorus
Tap to rate this tab
 
# A B C D E F G H I J K L M N O P Q R S T U V W X Y Z