Song name
# A B C D E F G H I J K L M N O P Q R S T U V W X Y Z

Korn - Get Up tab

Band: KoRn
Album: The Path to Totality
Song: Get up
Tuning (A D G C F A D)

Riff 1 (x4)
d||---------------------||
a||---------------------||
F||---------------------||
C||---------------------||
G||--11-11-11-10-\-3----||
D||--11-11-11-10-\-3----||
A||--9--9--9-8--\-1----||

Verse (x4)
d||---------------------------------||
a||---------------------------------||
F||---------------------------------||
C||---------------------------------||
G||--5-5-5-5-5-3-3-3-6-6-6-6-6-5-5--||
D||--3-3-3-3-3-1-1-1-4-4-4-4-4-3-3--||
A||---------------------------------||

Chorus (x1)
d||--------------------------------------||
a||--------------------------------------||
F||--------------------------------------||
C||--6-6-66-6-5-5-55-5-8-8-88-8-3-3-33-3-||
G||--6-6-66-6-5-5-55-5-8-8-88-8-3-3-33-3-||
D||--4-4-44-4-3-3-33-3-6-6-66-6-1-1-11-1-||
A||--------------------------------------||

Riff 1 (x4)
d||---------------------||
a||---------------------||
F||---------------------||
C||---------------------||
G||--11-11-11-10-\-3----||
D||--11-11-11-10-\-3----||
A||--9--9--9-8--\-1----||

Verse (x4)
d||---------------------------------||
a||---------------------------------||
F||---------------------------------||
C||---------------------------------||
G||--5-5-5-5-5-3-3-3-6-6-6-6-6-5-5--||
D||--3-3-3-3-3-1-1-1-4-4-4-4-4-3-3--||
A||---------------------------------||

Chorus (x2)
d||--------------------------------------||
a||--------------------------------------||
F||--------------------------------------||
C||--6-6-66-6-5-5-55-5-8-8-88-8-3-3-33-3-||
G||--6-6-66-6-5-5-55-5-8-8-88-8-3-3-33-3-||
D||--4-4-44-4-3-3-33-3-6-6-66-6-1-1-11-1-||
A||--------------------------------------||

Riff 1 (x4)
d||---------------------||
a||---------------------||
F||---------------------||
C||---------------------||
G||--11-11-11-10-\-3----||
D||--11-11-11-10-\-3----||
A||--9--9--9-8--\-1----||


Breakdown (x2)
d||------------------------------------------------------||
a||------------------------------------------------------||
F||------------------------------------------------------||
C||------------------------------------------------------||
G||--4---44/5\4-4--44/5\4--544---4-4/5\4/5\4--4/5\4/5\4--||
D||--4---44/5\4-4--44/5\4--544---4-4/5\4/5\4--4/5\4/5\4--||
A||--2---22/3\2-2--22/3\2--322---2-2/3\2/3\2--2/3\2/3\2-||
Pm   .          .       . ^  .  ^.             
                          |     |
           Jon screams SHUT!...UP!

You must just hear it out.


Chorus (x1)
d||----------------------------------||
a||----------------------------------||
F||----------------------------------||
C||--6---5-5-55-5-8-8-88-8-3-3-33-3--||
G||--6---5-5-55-5-8-8-88-8-3-3-33-3--||
D||--4---3-3-33-3-6-6-66-6-1-1-11-1--||
A||----------------------------------||
           ^  
  Let ring

Chorus (x1)
d||--------------------------------------||
a||--------------------------------------||
F||--------------------------------------||
C||--6-6-66-6-5-5-55-5-8-8-88-8-3-3-33-3-||
G||--6-6-66-6-5-5-55-5-8-8-88-8-3-3-33-3-||
D||--4-4-44-4-3-3-33-3-6-6-66-6-1-1-11-1-||
A||--------------------------------------||

Riff 1 (x4)
d||---------------------||
a||---------------------||
F||---------------------||
C||---------------------||
G||--11-11-11-10-\-3----||
D||--11-11-11-10-\-3----||
A||--9--9--9-8--\-1----||
Tap to rate this tab
# A B C D E F G H I J K L M N O P Q R S T U V W X Y Z