Guitaretab - guitar tabs
Song name
# A B C D E F G H I J K L M N O P Q R S T U V W X Y Z

Korn - Lets Get This Party Started tab

Gtr I (A D G C F A D) - 'Munky-Clean'
Gtr II (A D G C F A D) - 'Head-Clean'
Gtr III (A D G C F A D) - 'Head'
Gtr IV (A D G C F A D) - 'Munky'


 Intro
  Q=113
 4/4
  Gtr I
  Q  E E E Q  +E    E E E Q  E E E   Q  E E E Q  +E    E E E Q  E E E
|----2h3-2--------|-2h3-2----2---2-|----2h3-2--------|-2h3-2----2---2-|
|-----------------|----------------|-----------------|----------------|
|-4--------4--(4)-|-------4----4---|-3--------3--(3)-|-------3----3---|
|-----------------|----------------|-----------------|----------------|
|-----------------|----------------|-----------------|----------------|
|-----------------|----------------|-----------------|----------------|
|-----------------|----------------|-----------------|----------------|


   Verse
    $
    Gtr I
     Q   E E E Q    +E      E  E  E  Q  E E   E
||-------2h3-2----------|---2h=3--2-----2-----2--|
||----------------------|------------------------|
||o--4---------4----(4)-|------------4----4------|
||----------------------|------------------------|
||o---------------------|------------------------|
||----------------------|------------------------|
||----------------------|------------------------|
|
|   Gtr II
|    ~~~~~~~~~~~~~~~~~~~~~~~~~~~~~~~~~~~~~~~~~~~~~
|    H.           Q        +Q     E  H       +E
||----------------------|--------14--------------|
||--15-----------14-----|-(14)------15------(15)-|
||o---------------------|------------------------|
||----------------------|------------------------|
||o---------------------|------------------------|
||----------------------|------------------------|
||----------------------|------------------------|


   Q  E E E Q  +E      E  E  E  Q  E E   E   4x
|-----2h3-2--------|---2h=3--2-----2-----2---||
|------------------|-------------------------||
|--3--------3--(3)-|------------3----3------o||
|------------------|-------------------------||
|------------------|------------------------o||
|------------------|-------------------------||
|------------------|-------------------------||
|
|~~~~~~~~~~~~~~~~~~~~~~~~~~~~~~~~~~~~~~~~~~~
|  W                  +Q     E  H       +E   4x
|------------------|-------------------------||
|-14---------------|-(14)---15---------------||
|------------------|-----------16------(16)-o||
|------------------|-------------------------||
|------------------|------------------------o||
|------------------|-------------------------||
|------------------|-------------------------||


   Pre-Chorus
    F#5        G#5        D5         C5
    Gtrs III, IV
    W          W          W          W
||-----------|----------|----------|-------||
||-----------|----------|----------|-------||
||o----------|----------|----------|------o||
||--4--------|-6--------|----------|-------||
||o-4--------|-6--------|-5--------|-3----o||
||--2--------|-4--------|-5--------|-3-----||
||-----------|----------|-3--------|-1-----||
|
|   Gtr I
|   TP         TP         TP         TP
|   W          W          W          W
||--7--------|-9--------|----------|-------||
||--7--------|-9--------|-8--------|-6-----||
||o----------|----------|-7--------|-5----o||
||-----------|----------|----------|-------||
||o----------|----------|----------|------o||
||-----------|----------|----------|-------||
||-----------|----------|----------|-------||


 Chorus
  G5    F#5          C#5   C5    F#5   G5    F#5          C#5   C5    F#5
  Gtrs III, IV
   Q.    H     +E     Q.    Q.    Q     Q.    H     +E     Q.    Q.    Q
|------------------|-----------------|------------------|------------------
|------------------|-----------------|------------------|------------------
|------------------|-----------------|------------------|------------------
|--5-----4-----(4)-|--------------4--|--5-----4-----(4)-|--------------4---
|--5-----4-----(4)-|--4-----3-----4--|--5-----4-----(4)-|--4-----3-----4---
|--3-----2-----(2)-|--4-----3-----2--|--3-----2-----(2)-|--4-----3-----2---
|------------------|--2-----1--------|------------------|--2-----1---------
|
| Gtr II
|  TP    TP     TP    TP    TP    TP    TP    TP     TP    TP    TP    TP
|  Q.    H     +E     Q.    Q.    Q     Q.    H     +E     Q.    Q.    Q
|-13----12----(12)-|-------------12--|-13----12----(12)-|-------------12---
|------------------|-12----11--------|------------------|-12----11---------
|------------------|-----------------|------------------|------------------
|------------------|-----------------|------------------|------------------
|------------------|-----------------|------------------|------------------
|------------------|-----------------|------------------|------------------
|------------------|-----------------|------------------|------------------

[ Tab from: http://www.guitaretab.com/k/korn/29752.html ]
                                                                     D.S.
  G5    F#5          C#5   C5    F#5   G5    F#5          C#5   C5    F#5
   Q.    H     +E     Q.    Q.    Q     Q.    H     +E     Q.    Q.    Q
|------------------|-----------------|------------------|------------------||
|------------------|-----------------|------------------|------------------||
|------------------|-----------------|------------------|------------------||
|--5-----4-----(4)-|--------------4--|--5-----4-----(4)-|--------------4---||
|--5-----4-----(4)-|--4-----3-----4--|--5-----4-----(4)-|--4-----3-----4---||
|--3-----2-----(2)-|--4-----3-----2--|--3-----2-----(2)-|--4-----3-----2---||
|------------------|--2-----1--------|------------------|--2-----1---------||
|
|  TP    TP     TP    TP    TP    TP    TP    TP     TP    TP    TP    TP
|  Q.    H     +E     Q.    Q.    Q     Q.    H     +E     Q.    Q.    Q
|-13----12----(12)-|-------------12--|-13----12----(12)-|-------------12---||
|------------------|-12----11--------|------------------|-12----11---------||
|------------------|-----------------|------------------|------------------||
|------------------|-----------------|------------------|------------------||
|------------------|-----------------|------------------|------------------||
|------------------|-----------------|------------------|------------------||
|------------------|-----------------|------------------|------------------||


 Bridge
  B                            B
  Gtr IV
       PM-----|                     PM-----|
  Q.   e Q  e e   Q  Q  H      Q.   e Q  e e   Q  Q  H
|---------------|------------|---------------|------------|
|---------------|------------|---------------|------------|
|---------------|------------|---------------|------------|
|---------------|------------|---------------|------------|
|---------------|-7S=9--8----|---------------|-7S=9--8----|
|-7----7-7--7-7-|------------|-7----7-7--7-7-|------------|
|-0----0-0--0-0-|------------|-0----0-0--0-0-|------------|


    B                                    B
           PM------|                            PM------|
    Q.     e Q   e e   Q   Q   H         Q.     e Q   e e   Q   Q   H
||-------------------|-----------------|------------------|------------------||
||-------------------|-----------------|------------------|------------------||
||o------------------|-----------------|------------------|-----------------o||
||-------------------|-----------------|------------------|------------------||
||o------------------|-7S==9---8-------|------------------|-7S==9---8-------o||
||--7------7-7---7-7-|-----------------|-7------7-7---7-7-|------------------||
||--0------0-0---0-0-|-----------------|-0------0-0---0-0-|------------------||
|
|   Gtr I
|   E  E E E E E E E   E E E E E E E E   E  E E E E E E E   E E E E E E E E
||--4------------4---|-4-----4-----4---|-4------------4---|-4-----4-----4----||
||-----5---5---5---5-|---5-----5-----5-|----5---5---5---5-|---5-----5-----5--||
||o------7---7-------|-----7-----7-----|------7---7-------|-----7-----7-----o||
||-------------------|-----------------|------------------|------------------||
||o------------------|-----------------|------------------|-----------------o||
||-------------------|-----------------|------------------|------------------||
||-------------------|-----------------|------------------|------------------||


   Pre-Chorus
    F#5        G#5        D5         C5
    Gtrs III, IV
    W          W          W          W
||-----------|----------|----------|-------||
||-----------|----------|----------|-------||
||o----------|----------|----------|------o||
||--4--------|-6--------|----------|-------||
||o-4--------|-6--------|-5--------|-3----o||
||--2--------|-4--------|-5--------|-3-----||
||-----------|----------|-3--------|-1-----||
|
|   Gtr I
|   TP         TP         TP         TP
|   W          W          W          W
||--7--------|-9--------|----------|-------||
||--7--------|-9--------|-8--------|-6-----||
||o----------|----------|-7--------|-5----o||
||-----------|----------|----------|-------||
||o----------|----------|----------|------o||
||-----------|----------|----------|-------||
||-----------|----------|----------|-------||


   Chorus
    G5    F#5          C#5   C5    F#5     G5
    Gtrs III, IV
     Q.    H     +E     Q.    Q.    Q   4x  W           +W
||-------------------|------------------||-----------|---------*|
||-------------------|------------------||-----------|---------*|
||o------------------|-----------------o||-----------|---------*|
||---5-----4-----(4)-|--------------4---||--5--------|--(5)----*|
||o--5-----4-----(4)-|--4-----3-----4--o||--5--------|--(5)----*|
||---3-----2-----(2)-|--4-----3-----2---||--3--------|--(3)----*|
||-------------------|--2-----1---------||-----------|---------*|
|
|   Gtr II
|    TP    TP     TP    TP    TP    TP      TP           TP
|    Q.    H     +E     Q.    Q.    Q   4x  W           +W
||--13----12----(12)-|-------------12---||-13--------|-(13)----*|
||-------------------|-12----11---------||-----------|---------*|
||o------------------|-----------------o||-----------|---------*|
||-------------------|------------------||-----------|---------*|
||o------------------|-----------------o||-----------|---------*|
||-------------------|------------------||-----------|---------*|
||-------------------|------------------||-----------|---------*|




--------------------------------------------------------------------------------


Duration Legend
---------------
W - whole; H - half; Q - quarter; E - 8th; S - 16th; T - 32nd; X - 64th; a - acciaccatura
+ - note tied to previous; . - note dotted; .. - note double dotted
Uncapitalized letters represent notes that are staccato (1/2 duration)
Irregular groupings are notated above the duration line
Duration letters will always appear directly above the note/fret number it represents the
duration for.  Duration letters with no fret number below them represent rests.  Multi-
bar rests are notated in the form Wxn, where n is the number of bars to rest for.  Low
melody durations appear below the staff

Tablature Legend
----------------
 h   - hammer-on
 p   - pull-off
 b   - bend
 pb  - pre-bend
 r   - bend release (if no number after the r, then release immediately)
 /\  - slide into or out of (from/to "nowhere")
 s   - legato slide
 S   - shift slide
 - natural harmonic
[n]  - artificial harmonic
n(n) - tapped harmonic
 ~   - vibrato
 tr  - trill
 T   - tap
 TP  - trem. picking
 PM  - palm muting
\n/  - tremolo bar dip; n = amount to dip
 \n  - tremolo bar down
 n/  - tremolo bar up
/n\  - tremolo bar inverted dip
 =   - hold bend; also acts as connecting device for hammers/pulls
 <> - volume swell (louder/softer)
 x   - on rhythm slash represents muted slash
 o   - on rhythm slash represents single note slash

Misc Legend
-----------
 |  - bar
||  - double bar
||o - repeat start
o|| - repeat end
*|  - double bar (ending)
 :  - bar (freetime)
 $  - Segno
 &  - Coda
Tempo markers -  = BPM(8/16=s8/s16), where s8 = swing 8ths, s16 = swing 16ths


Related for Lets Get This Party Started tab
×
Lets Get This Party Started