Song name
# A B C D E F G H I J K L M N O P Q R S T U V W X Y Z

Korn - Narcissistic Cannibal tab

-------------------------------------------------------------------------------
			     Narcissistic Cannibal - Korn
-------------------------------------------------------------------------------

Tuning: 7 string (A D G C F a d)

*Please put additions or corrections in the comments section.

Intro
d|---------------------------------------------------|
a|---------------------------------------------------|
F|---------------------------------------------------|
C|-------------4-------------------------------------|
G|-------------2-2-----------------------------------|
D|--7-4-xx-4-x---0-----7-4-xx-4-xx-x-x---------------|
A|--5-2-xx-2-x---------5-2-xx-2-xx-x-x---------------|

Verse
I use single notes and power chords on the 2nd and 5th frets (low A string), mixing in 
muted strings.

Chorus
d|--------------------------------------------------------|
a|--------------------------------------------------------|
F|-----------------------------------------4--------------|
C|-----------------------------------------2-2------------|
G|------------4-------------2----------------0------------|
D|--4----2----2-----0^2^0^2^0------4----2-----------------|
A|--2----0-------------------------2----0-----------------|
Tap to rate this tab
# A B C D E F G H I J K L M N O P Q R S T U V W X Y Z