Song name
# A B C D E F G H I J K L M N O P Q R S T U V W X Y Z

Korn - Narcissistic Cannibal tab

Korn - The Path of Totality - Narcissistic Cannibal

Tabbed By: FRr3AkOnALEaSh (smokin_05@hotmail.com)
Tuning: 7 String Tuned Down 1 Whole Step (A D G C F A D)

Using Korn's signature setup for the tab, but can also
be played alternatively in Standard 7 String tuning or
even in drop B. Bottom line is, you need that low B for
Riff 2.

Riff 1 (Intro 1)
D|--------------------------------|
A|--------------------------------|
F|--13~---------------------------|
C|------16~-----------------------|
G|----------16~--------------14~--|
D|---------------14-16-14-16------|
A|--------------------------------|

Riff 2 (Intro 2/Pre-Verse/Outro)
D|---------------------------------------21-21-21-21-21--|
A|---------------------------------------12-12-12-12-12--|
F|-----------------4~--------------------^^-^^-^^-^^-^^--|
C|-----------------x~------------------------------------|
G|--22-4~----4~----2~-4~----22-4~----4~------------------|
D|--00-4~----4~-------4~----00-4~----4~------------------|
A|-----2~-22-2~-22----2~-22----2~-22-2~------------------|
          ..    ..       ..       .. 

Riff 3 (Verse)
D|--------|
A|--------|
F|--------|
C|--------|
G|--------|
D|--------|
A|--2222--|
    ...

Riff 4 (Chorus 1/Outro)
D|-------------------------|
A|-------------------------|
F|--6~--4~-----------------|
C|--6~--4~-4~--2h4-2h4-2~--|
G|--4~--2~-4~--------------|
D|---------2~--------------|
A|-------------------------|

Riff 5 (Chorus 2/Outro)
D|--------------------------------|
A|--------------------------------|
F|--6~--4~/9~2~-------2h4-2h4-2~--|
C|--6~--4~/9~2~-------------------|
G|--4~--2~/7~0~-------------------|
D|---------------(2)--------------|
A|--------------------------------|

************************************

0:00 - 0:21 = Riff 1 (Intro 1)
0:21 - 0:33 = Riff 2 (Intro 2)
0:33 - 0:57 = Riff 3 (Verse)
0:57 - 1:03 = Riff 4 (Chorus 1)
1:03 - 1:09 = Riff 5 (Chorus 2)
1:09 - 1:14 = Riff 4 (Chorus 1)
1:14 - 1:19 = Riff 5 (Chorus 2)
1:19 - 1:25 = Riff 2 (Pre-Verse)
1:25 - 1:50 = Riff 3 (Verse)
1:50 - 1:55 = Riff 4 (Chorus 1)
1:55 - 2:01 = Riff 5 (Chorus 2)
2:01 - 2:06 = Riff 4 (Chorus 1)
2:06 - 2:11 = Riff 5 (Chorus 2)
2:11 - 2:34 = Breakdown (Not any real parts here for guitar)
2:34 - 2:40 = Riff 4 (Chorus 1)
2:40 - 2:45 = Riff 5 (Chorus 2)
2:45 - 2:51 = Riff 4 (Chorus 1)
2:51 - 2:56 = Riff 5 (Chorus 2)
2:56 - End. = Riff 2 (Outro)


************************************

| / - slide up
| \ - slide down
| h - hammer-on
| p - pull-off
| ~ - let ring (until next note)
| + - harmonic
| ()- optional note

************************************
Tap to rate this tab
# A B C D E F G H I J K L M N O P Q R S T U V W X Y Z